Artist: Killing Heidi
Song: Astral Boy

Intro/Verse Riff 1
e|---------------------2---------2---------3----------3-------------------------0---|
B|-0--1----0--1-----------------------------------------------------3---------------|
G|--------------------------0---------0----------0---------0------------------------|
D|-2-------2-2-------2-0------0-0-------0-2-------2-2-------------------------------|
A|---------------------------------------------------------------0-2-3----------3---|
E|----------------------------------------------------------------------------------|
Astral Boy your're so high, will you ever come down soaring over everyone,
you bigger than the stars,
Chorus Riff 2 2X
e|--------------------------------------------------------------------------|
B|-1--------1--------3--------3--------2--------2-----------3-------3-------|
G|-----0--------0--------0--------0--------0--------0----------0--------0---|
D|--------------------------------------------------------------------------|
A|-3-----3-3------3-2-----2-2------2-0-----0-0------0-2-3-----3-3-----------|
E|--------------------------------------------------------------------------|
ohh ohh ohh ..... Verse 2 Riff 1
Astral boy your're so hot, will you ever melt? flying so close to thse sun,
now you know how i felt,
Chorus Riff 2 2x Interlude
e|-0--2-0-------------0-------------------------------------------2-----|
B|---------3-0----3-----3--2-0----1-----1-1----3-----------0--------0---|
G|--------------------------------------0-------0-----------0-----------|
D|2--2-2-0-------0--0-0-------0-----------------------0-----------------|
A|-----------------------------------3--- ----3------3------------------|
E|----------------------------------------------------------------------|
*
e|-0-------0---2------------------0------0---2----------------------|
B|------------------3-----3------------------------3-----3----------|
G|----0---------------0-----0-------0----------------0-----0--------|
D|2-----------2----0-----0------2-----------2----0-----0------------|
A|------------------------------------------------------------------|
E|------------------------------------------------------------------|
*
e|-0--2-0-------------0-------------------------------------------2---------|
B|---------3-0----3-----3--2-0----1-----1-1----3-----------0--------0-------|
G|--------------------------------------0-------0-----------0---------------|
D|2--2-2-0-------0--0-0-------0-----------------------0---------------------|
A|-----------------------------------3-------3------3----------------------|
E|--------------------------------------------------------------------------|
Now your're cold, your're so alone, sitting on the floor Hardwood boards and
abstract thoughts, gesture to the door
Chorus Riff 2





Ваше мнение



Капча