Solo: 2:44
E---------------|--------|-----------------|-----------------|
B---------------|--------|7--8--7----------|7--8--7----------|
G---------------|------5-|---------9--7----|---------9--7----|
D---------------|---5--5-|---------------9-|---------------9-|
A-------------5-|7-------|-----------------|-----------------|
E--3--3--5/7----|--------|-----------------|-----------------|
x x
E--7--8--7--------------10---------|14--15--14------------|----15-----------|
B-----------10--8--10b12--12r10--8-|------------15b17--15-|--------15--15---|
G----------------------------------|----------------------|16----------14b16|
D----------------------------------|----------------------|-----------------|
A----------------------------------|----------------------|-----------------|
E----------------------------------|----------------------|-----------------|
E------------|-------|--------------|------------|
B------------|-------|--------------|3--3------3-|
G--12h14--12-|7h9--7-|4--2--0--2--0-|2--2b4r2--0-|
D------------|-------|--------------|------------|
A------------|-------|--------------|------------|
E------------|-------|--------------|------------|
J.C.




Ваше мнение



Капча