GUITAR TABLATURE ONLINE
URL: www.angelfire.com/bc/tablature
EMAIL: [email protected]
[email protected]-----------------------------
SONG: Only God Knows Why
BAND: Kid Rock
ALBUM: Devil Without A Cause
TRANSCRIBED BY: Paul De Jaegher
DATE: January 29, 2000
----------------------------------------------------------------------------------------------
TUNING: standard (E,A,D,G,B,E)
INTRO/VERSE:
E B A E
E|--0--|-----|--0--|--0--|
B|--0--|--4--|--2--|--0--|
G|--1--|--4--|--2--|--1--|
D|--2--|--4--|--2--|--2--|
A|--2--|--2--|--0--|--2--|
E|--0--|-----|-----|--0--|
1ST BRIDGE: (1:45)
C#m F#5 E C#m F#5 A
E|--4--|-----|--0--|--4--|-----|-----|
B|--5--|-----|--0--|--5--|-----|--2--|
G|--6--|-----|--1--|--6--|-----|--2--|
D|--6--|--4--|--2--|--6--|--4--|--2--|
A|--4--|--4--|--2--|--4--|--4--|--0--|
E|-----|--2--|--0--|-----|--2--|-----|
GUITAR SOLO: (2:02)
E B Dsus2 A E
E|--0--|-----|--0--|--0--|--0--|
B|--0--|--4--|--3--|--2--|--0--|
G|--1--|--4--|--2--|--2--|--1--|
D|--2--|--4--|--0--|--2--|--2--|
A|--2--|--2--|--0--|--0--|--2--|
E|--0--|-----|-----|-----|--0--|
2ND BRIDGE: (2:31)
C#m F#5 C#m F#5
E|--4--|-----|--4--|-----|
B|--5--|-----|--5--|-----|
G|--6--|-----|--6--|-----|
D|--6--|--4--|--6--|--4--|
A|--4--|--4--|--4--|--4--|
E|-----|--2--|-----|--2--|
CHORUS: (4:17)
E B A E
E|--0--|-----|--0--|--0--|
B|--0--|--4--|--2--|--0--|
G|--1--|--4--|--2--|--1--|
D|--2--|--4--|--2--|--2--|
A|--2--|--2--|--0--|--2--|
E|--0--|-----|-----|--0--|
E Dsus2 A E
E|--0--|--0--|--0--|--0--|
B|--0--|--3--|--2--|--0--|
G|--1--|--2--|--2--|--1--|
D|--2--|--0--|--2--|--2--|
A|--2--|--0--|--0--|--2--|
E|--0--|-----|-----|--0--|
OUTRO: (4:46)
E D A
E|--0--|--2--|--0--|
B|--0--|--3--|--2--|
G|--1--|--2--|--2--|
D|--2--|--0--|--2--|
A|--2--|--0--|--0--|
E|--0--|-----|-----|




Ваше мнение



Капча