Song-My oedipus complex
Artist-KID ROCK
Album-History Of Rock
Track #-14
TABBER-Funky6Gangzta aka Funk Traveler aka Funky T. aka John Bowman
but you can just call me Funky
Riff 1 Guitar 1
e|----------------------------------|
b|----------------------------------|
g|-2--2-7---5-2---------------------|
d|-2--2-7---5-2---------------------|
a|-0--0-5-0-3-0---------------------|
E|----------------------------------|
Riff 1 guitar 2
e|----------------------------------|
b|----------------------------------|
g|----------------------------------|
d|----------------------------------|
a|-0--0-5-0-3-0---------------------|
E|----------------------------------|
Repeat Riff 1 3X, then play this
Both Guitars
e|------------------------------------|
b|------------------------------------|
g|-2--5-5--7-7------------------------|
d|-2--5-5--7-7------------------------|
a|-0--3-3--5-5------------------------|
E|------------------------------------|
Fart around with it
Folkkz Nation
G-LUV |/




Ваше мнение



Капча