tabbed by: dominic vitiello
email: [email protected]

Intro: Background is acoustic finger-picking - C9 - G - D

Electric solo begins on D:

E||------------5-----------------------------------------------------|
B||--------7-------7---5---s3h5h3---3---0---3s7---3---3---0---3s5---7|
G||---7---7----------------------------------------------------------|
D||---7---7----------------------------------------------------------|
A||------------------------------------------------------------------|
E||------------------------------------------------------------------|
...1st set of cymbals...

E||-----------------------------------------------------10h12h10---17|
B||-----------------------------------------------------10h12h10---17|
G||------------------------------------------------------------------|
D||------------------------------------------------------------------|
A||--------5h7h5-----------------------------5-----------------------|
E||5---7----------7---5h7h5---3---5---7------------------------------|
...2nd set of cymbals...

E||--------5---3-----------------------------------------------------|
B||--------------7---5---5---3h5---3h5h3---0---------3h5h3-----------|
G||---7--------------------------------------2---4---------4---2h4h2-|
D||------------------------------------------------------------------|
A||------------------------------------------------------------------|
E||------------------------------------------------------------------|

Turn the song off after this point because it's terrible.




Ваше мнение



Капча