Artist: Kid Rock
Song: I am the Bull God
Album: Devil without a cause
Tuning: standard
[email protected]
intro
--------------------------|
--8-----------------------|
--6--3h5-0--3h5p0--3h5p0--|
--6--3h5-0--3h5p0--3h5p0--|
--6--3h5-0--3h5p0--3h5p0--|
?

-----------------------------------------|------------------------
-----------------------------------------|------------------------
-----------------------------------------|----------7--5----7b----
--3------5---------------3-0-3h5p3-0-3---|-----5h7--7--5-5--7b----
--3------5---------------3-0-3h5p3-0-3---|---------------5--------
--3------5---------------3-0-3h5p3-0-3---|------------------------
Chorus lead not sure of rest
---------------------|-----------------------
---------------------|-----------------------
---5-----7-----5--3--|---7/6-4-4-3---3---3-7-
---5-x-x-7-x-x-5--3--|---7/6-4-4-3---3---3-7-
---3-x-x-5-x-x-3--1--|---5/4-3-2-1-0-1-0-1/5-
---------------------|-----------------------
???
---------
---------
--------- couple times
--3h5-5--
--3h5-5--
--3h5-5--




Ваше мнение



Капча