Artist-KID ROCK
Song-Fuck That
Album-History of Rock
Track #-11
TABBER- Funky6Gangzta aka Funk Traveler aka John Bowman
~MAIN RIFF~
e|---------------------------|
b|---------------------------|
g|---------------------------|
D|-0--0-0-5H7-0-5H7-0-5H7-0--|
A|-0--0-0-5H7-0-5H7-0-5H7-0--|
D|-0--0-0-5H7-0-5H7-0-5H7-0--|
~FILL~ (uses wah-wah effects, i think)
e|---------------------------|
b|---------------------------|
g|-------5-------------------|
D|-0-5H7---7H5---------------|
A|---------------------------|
D|---------------------------|
Improvise whatever I left out
FOLK LUV!
G-NATION! |/




Ваше мнение



Капча