this is the little riff in the middle of the song.
drop d tuning for this.
/= slide
x+mute note with left hand
e---------------------------------------------------------|
b---------------------------------------------------------|
g---------------------------------------------------------|
d-0---3---5---5/7--00x010x0x-00001000---------------------|
a-0---3---5---5/7--00x010x0x-00001000---------------------|
d-0---3---5---5/7--00x010x0x-00001000---------------------|
pm........
e---------------------------------------------------------|
b---------------------------------------------------------|
g---------------------------------------------------------|
d-0---3---5---5/7-----------------------------------------|
a-0---3---5---5/7-----pickslide---------------------------|
d-0---3---5---5/7-----------------------------------------|




Ваше мнение



Капча