Kid Rock
Fist Of Rage
Tabbed By: [email protected]

Drop D-Tuning

Intro:Drum Machine

Verses 1 & 3

E---------------------------------------------------------|
B---------------------------------------------------------|
G---------------------------------------------------------|
D---------------------------------------------------------|
A-3h5---5-5---5---------------3h5---5-5---5---------------|
D-0---0-0---x---x-0-0-0-0-x-0-0---0-0---x---x-0-0-0-0-x-0-|

E------------------------------------------------------------------|
B------------------------------------------------------------------|
G------------------------------------------------------------------|
D------------------------------------------------------------------|
A-3h5---5-5---5---------------3h5-----5-5---5-6-5-3----------------|
D-0---0-0---x---x-0-0-0-0-x-0-0---0-x-0---x---6-3-3end Rhy. Fig. 1-|

E-----------------------------------------|
B-----------------------------------------|
G-----------------------------------------|
D-----------------------------------------|
A-3h5-----5-5---5----------------6-5-3-0--|
D-0---0-x-0---x---x-0-0-0-0-x-0--6-5-3-0--|

E-----------------------------------------------------------------|
B-----------------------------------------------------------------|
G-----------------------------------------------------------------|
D-----------------------------------------------------------------|
A-3h5---5-5---5---------------3h5-----5-5---5---------------3h5-5-|
D-0---0-0---x---x-0-0-0-0-x-0-0---0-x-0---x---x-0-0-0-0-x-0-0-----|




Ваше мнение



Капча