THIS IS IN STANDARD TUNING
D G
Baby when I think about you
D G
I think about love
D G
Darlin don't live without you
D G
And your love
D G
If I had these golden dreams
D G
Of my yesterdays
D G
I would wrap you the heavens
D G
Till I'm dying on the way
IN THE CHORUS IT CHANGES HE USES A LITTLE DISTORTION
|-----------------------------------|
|-----------------------------------|
|-----------------------------------|
|--5/7-7------5/7-7------5/7-7---5--|
|--3/5-5------3/5-5------3/5-5---3-5|
|----------------------------------3|
Feel like makin love
Feel like makin love to you
|-----------------------------------|
|-----------------------------------|
|-----------------------------------|
|--5/7-7------5/7-7------5/7-7---5--|
|--3/5-5------3/5-5------3/5-5---3-5|
|----------------------------------3|

D G
Baby if I think about you
D G
I think about love
D G
Darlin if I live without you
D G
I live without love
D G
If I had the sun and the moon
D G
I would give you both night and day
D
Of satisfyin
Feel like makin
Feel like makin love
Feel like making love to you
|-----------------------------------|
|-----------------------------------|
|-----------------------------------|
|--5/7-7------5/7-7------5/7-7---5--|
|--3/5-5------3/5-5------3/5-5---3-5|
|----------------------------------3|

D G
And if I had those golden dreams
D G
Of my yesterdays
D G
I would wrap you in the heavens
D
Till I'm dyin on the way
Feel like makin love
Feel like makin love
Feel like makin love to you
i think i have figured out the lead but im not too sure so here it is
/=slide
h=hammer on
p=pull off
|------------------------------------|
|--3/7-5-7-7/8-7-8-8/12-10-10h12p10-8|
|------------------------------------|
|------------------------------------|
|------------------------------------|
|------------------------------------|
i guess thats it




Ваше мнение



Капча