Kid Rock, Cowboy.
Tabbed by Alex Schieber, [email protected]

Kid Rock
Cowboy

Standard tuning
H=hammer on
P=pull off
B= Bend

intro: Semi-distorted tone
---------------------------------
---------------------------------
---------------------------------
-4/6-6--4-6-xx-xx-4/6-6--4-6-xx-xx
-4/6-6--4-6-xx-xx-4/6-6--4-6-xx-xx
-2/4-4--2-4-xx-xx-2/4-4--2-4-xx-xx

Verse: Clean tone
--------------------------------------------------
--------------------------------------------------
-------1---------1--------------1---3B--1------1--
---1h3----3p1--------------1h3------------1h3-----
--------------2-----------------------------------
-4----------------------4-------------------------

Refrain: Heavy distortion
---------------------------------
---------------------------------
---------------------------------
-4/6-6--4-6-xx-xx-4/6-6--4-6-xx-xx
-4/6-6--4-6-xx-xx-4/6-6--4-6-xx-xx
-2/4-4--2-4-xx-xx-2/4-4--2-4-xx-xx

All of the other tabs of this song i found were not right so i decided to tab my own and i know that it is right. if you like it, email me.




Ваше мнение



Капча