tuning: standard (e,a,d,g,b,e)
here is the solo
e|----0-0-0-0-0-0-0-0-2h-0-0-0-0-0-0|
a|----2-2-2-2-2-2-2-2-2--2-2-2-2-2-2|
d|----------------------------------|
g|----------------------------------|
b|----------------------------------|
e|----------------------------------|
e|----0-0-0-0-0-0-0-0-2h-0-0-0-0-0-0|
a|----2-2-2-2-2-2-2-2-2--2-2-2-2-2-2|
d|----------------------------------|
g|----------------------------------|
b|----------------------------------|
e|----------------------------------|
e|----0-0-0-0-0-0-0-0-2h-0-0-0-0-0-0|
a|----2-2-2-2-2-2-2-2-2--2-2-2-2-2-2|
d|----------------------------------|
g|----------------------------------|
b|----------------------------------|
e|----------------------------------|
e|----0-0-0-0-0-0-0-0-2h-0-0-0-0-0-0|
a|----2-2-2-2-2-2-2-2-2--2-2-2-2-2-2|
d|----------------------------------|
g|----------------------------------|
b|----------------------------------|
e|----------------------------------|
questions comments? e-mail me at [email protected]




Ваше мнение



Капча