Title: Bawitabaw
Album: Devil Without A Cause
Transcribed by: Rob
Email: [email protected]
visit my webpage: drive.to/euphoria
Intro:
--12--
---x-- trem pick that
---9--
------
------
------
--------------||----||-------------
--------------||----||------------- first and
--------------||----||------------- third time
-----------5--||-3x-||--3-3-3-3---- palm mute
--2-2---2--5--||----||--3-3-3-3---- this part
--0-0-x-0--3--||----||--1-1-1-1----
pm......
Verse:
Guitar 1
------------------------------------------------|
------------------------------------------------|
------------------------------------------------|
-----------0h2p0--------------------------0h2p0-|
--2-2-2-2--------2-2-2-2----------2-2-2-2-------|
--0-0-0-0--------0-0-0-0--3h5p3h5-0-0-0-0-------|
Guitar 2 (enter second time)
--12-12-12--10/12--15-15-15-15-15/18-18-18-18-18-|
---x--x--x---x/-x---x--x--x--x--x/-x--x--x--x--x-|
---9--9--9---8/-9--12-12-12-12-12/15-15-15-15-15-|
-------------------------------------------------|
-------------------------------------------------|
-------------------------------------------------|
Fills
-------------------------------|-----------------------|
-------------------------------|-----------------------|
-7h9p7-------------------------|-----------------------|
-------9-7----9----9-8-9-------|-0h2p0-----------------|
-----------10---10-------10--7-|-------2p0---0h1p0-----|
-------------------------------|-----------3--------3-0|
not sure about these parts, but they are close
---------------------------------|--14---sometimes----11--
---------------------------------|---x------its--------x--
---------------------------------|--11-------this------8--
---------------------------------|------------------------
--3-3--3-3--3-3--3-----3-3-333-3-|------------------------
--1-1--1-1--1-1--1--4~-1-1-111-1-|------------------------
---------|-----------
---------|-----------
---------|-----------
---------|-3-3-3-3-2-
------22-|-3-3-3-3-2-
--3p0-00-|-1-1-1-1-0-




Ваше мнение



Капча