I just wrote this because I have never seen anything even close to this for
the Kid Rock Song. You may also see Metallica's Sad But True to get additional
tabs, as they are the same song.
Tune down 1/2 step for best quality
Riff 1
E|--------------------------------------|
B|--------------------------------------|
G|--------------------------------------|
D|--3-3---3-3----4--4---3---------------|Repeat a few times
A|--1-1---1-1----2--2---1---7--6--5--3b-|
E|--------------------------------------|
Riff 2
E|-----------------------------|
B|-----------------------------|
G|-----------------------------|
D|--2--X---2-2-------------2-2-|Repeat a few times
A|--2--X---2-2----5--1-----2-2-|
E|--0--X---0-0----------3--0-0-|
Riff 3
E|-----------------------------|
B|-----------------------------|
G|-----------------------------|
D|-----------------------------|
A|--5-0-5-5b-------------------|
E|-----------------------------|
Order:
Riff 1 Several Times
Riff 2 Several Times
Riff 3 Two Times (on second time put some emphasis on the bent a string at the last)




Ваше мнение



Капча