Kent - VinterNoll2
Tabbed By: Rasmus Halvarsson
Intro:
E-----------------------|I
B-----------------------|I
G-----6---6---6---6-----|I
D-----------------------|I
A---4---4---4---4-------|I
E-----------------------|I
Melodi: x3?
E-9---9-7-9-----9---9-7-9----|-9---9-7-9--------9----9-7-9--|I
B-----------9-------------7--|------------9-----------------|I
G----------------------------|------------------------------|I
D----------------------------|------------------------------|I
A----------------------------|------------------------------|I
E----------------------------|------------------------------|I
N?r ?set b?rjar: C#m, B, A, C#m
C#m, B, A, C#m
E---------------------------------------------------|I
B--5----5-4-5-4-----4----4-2-4-2-----2---2-0--------|I
G--------------------------------------------1------|I
D---------------------------------------------------|I
A---------------------------------------------------|I
E---------------------------------------------------|I
x2
C#m B A C#m
Och dom s?ger att stan har blivit tyst och ful och ?de ?lskling.
E B C#m
Att det kommer att bli en l?ng kall vinter.
C#m B A C#m B
Jag har l?rt mig att saknaden ?r v?rst n?r n?n har sovit som ett barn
A C#m
Genom en iskall vinter.
A E B A
Du ?r min hj?lte f?r att du v?gar vara rak.
A C#m B A
Du ?r min hj?lte f?r att du ?r precis s? svag som jag.
A E B A
Kom och hj?lp mig jag beh?ver dig igen igen igen.
C#m B A C#m
Och du k?nner att staden ?r precis som staden alltid varit.
E B C#m
I v?ntan p? en l?ng kall vinter.
C#m B A C#m B
Och du s?ger att saknad kan man l?ra sig att leva med ibland.
A C#m
Genom en iskall vinter.
A E B A
Du ?r min hj?lte f?r att du v?gar vara rak.
A C#m B A
Du ?r min hj?lte f?r att du ?r precis s? svag som jag.
A E B A
Kom och hj?lp mig jag beh?ver dig igen igen igen.
A E B A
Du ?r min hj?lte f?r att du v?gar vara rak.
A C#m B A
Du ?r min hj?lte f?r att du ?r precis s? svag som jag.
A E B A
Kom och hj?lp mig jag beh?ver dig igen igen igen.





Ваше мнение



Капча