THINGS SHE SAID
BY KENT
FROM THE ALBUM ISOLA (1998)
---------------------------
Tabbed by VEN – (then)
INTRO:
C Am Fmaj7
--0--0---0--0---0--0-- x4
--1--0---1--0---1--0--
--0--0---2--2---2--2--
--2--2---2--2---3--3--
--3--3---0--0---------
----------------------
VERSE1:
C Am Fmaj7
--0--0---0--0---0--0--
--1--0---1--0---1--0--
--0--0---2--2---2--2--
--2--2---2--2---3--3--
--3--3---0--0---------
----------------------
C Am Dm F G Fmaj7
--0--0---0--0---1---1---3---0--
--1--0---1--0---3---1---0---1--
--0--0---2--2---2---2---0---2--
--2--2---2--2---0---3---0---3--
--3--3---0--0-----------2------
------------------------3------
ENJOY!!!!!




Ваше мнение



Капча