Intro: |n.c. |n.c. |n.c. |n.c. | Gitarr 1
|n.c. |n.c. |n.c. |n.c. | Gitarr 1 + Gitarr 2
|Dm |Am7 |Gm |Gm | 2x
guitar 1:
D --/3-3-3-3-3-3-3-3/5-5-5-5-5-5-5-5/--
A --/5-5-5-5-5-5-5-5/7-7-7-7-7-7-7-7/--
D ---8--8--8--8--8--8--8--8--8--8--8--8--8--8--8--8--
A --10-10-10-10-10-10-10-10-10-10-10-10-10-10-10-10--
Guitar 2:
B --6--8-6-8-6--6/8--10---10-8----------6------------------
G --7-----------7/9-------------9/7--7----7----5--5-3---5-3
D --7-----------7/10--------------5-------------------5----


Dm Am7 Gm
Everybody gets a second in the sun
Dm Am7 Gm
I have a feeling mine has just begun
Gm Am7 Dm
Music non stop when I close my eyes
Gm Am7 Gm
Clarity born from a compromise
Dm
And you are almost like me...
|Dm |
Dm Gm
So why don't you dance to the music
C Dm
I hear inside my head
Dm Gm
Why don't you dance to the music
C Dm
It's the soundtrack for the end...
|Dm |
Dm Am7 Gm
I'm looking for a place to lie in wait
Dm Am7 Gm
I quit my job to find a perfect fate
Gm Am7 Dm
Music non stop when I close my eyes
Gm Am7 Gm
I need some time alone I found a carpark that is home
Dm
You're almost like me....
|Dm |
Dm Gm
So why don't you dance to the music
C Dm
I hear inside my head
Dm Gm
Why don't you dance to the music
C Dm
It's the soundtrack for the end...
|Dm |
Solo: |Gm |Am7 |Dm |Dm | 2x
e -----------------------------------
B --------------------s10------------
G -------10--10/12v-------12--10-----
D --s12--------------------------12--
A -----------------------------------
E -----------------------------------
Dm Am7 Gm
Everybody gets a second in the sun
Dm Am7 Gm
I have a feeling mine has just begun
Gm Am7 Dm
Music non stop when I close my eyes
Gm Am7 Gm
Clarity born from a compromise
Dm
And you are almost like me...
|Dm |
Dm Gm
So why don't you dance to the music
C Dm
I hear inside my head
Dm Gm
Why don't you dance to the music
C Dm
It's the soundtrack for the end...
Dm Gm
So why don't you dance to the music
C Dm
I hear inside my head
Dm Gm
Why don't you dance to the music
C Dm
It's the soundtrack for the end...
|Dm |Dm |Dm |
Dm
: Gm = 355333
Am7 = x02010 or 575555
n.c. = no chord




Ваше мнение



Капча