INTRO:

----------------4-2-------------------4-2----------------4-2-----
-------2---3-2-------3-2------2-2-3-2-----3-2----2-2-3-2-----3-2-
-----2---2-------------------------------------------------------
---4-------------------------------------------------------------
-----------------------------------------------------------------
-----------------------------------------------------------------

-----------------------------------------
-------2------3--------------------------
-----2------2----------------------------
---4------4------------------------------
-----------------------------------------
-----------------------------------------




Ваше мнение



Капча