Intro:
|F#m |F#m |
e |---------------|-4---2--------------|
B |---2---3---2---|---------3---2----2-|
G |-----2---2---2-|---2---2---2---2----|
D |-4-------------|--------------------|
A |---------------|--------------------|
E |---------------|--------------------| 4x

During the verse:
F#m F#m/F F#m/E Dmaj7 Bm7 F#m
e ----------------4-2---------------------------------
B -----2--------------2---------------3-----3-2--------
G ---2------------------------------2-----------2------
D -4------------------------------4------------------(4)




Ваше мнение



Капча