Bastabulatur:
intro + the 2 first lines:
G -----------------------------------
D --0-----0-2--0----0-----0-2---0----
A ----0-3---------3---0-3-----3------
E -----------------------------------
from the 3 line:
G --0-----0-2--0---------------------
D ----0-3---------3-0-----0-2-0------
A --------------------0-3-------3----
E -----------------------------------
G -----------------------------------
D --0-----0-2--0----0-----0-2---0----
A ----0-3---------3---0-3-----3------
E -----------------------------------
G --0-----0-2--0---------------------
D ----0-3---------3-0-----0-2-0------
A --------------------0-3-------3----
E -----------------------------------
G --0-----0-2--0----0-----0-2-0------
D ----0-3---------3---0-3-------3----
A -----------------------------------
E -----------------------------------
G -----------------------------------
D --0-----0-2--0----0----------------
A ----0-3---------3------------------
E -----------------------------------
Rеfrдng: play the chors as usual.
Solo 2x:
G --0-----0-2--0---------------------
D ----0-3---------3-0-----0-2-0------
A --------------------0-3-------3----
E -----------------------------------
G -----------------------------------
D --0-----0-2--0----0-----0-2---0----
A ----0-3---------3---0-3-----3------
E -----------------------------------
Vers 3 (the first half): only a long D. from line 3 as usual.




Ваше мнение



Капча