m: "David Gurak"
Subject: s/sheppard_kenny_wayne/while_we_cry.tab
Date: Sat, 4 Apr 1998 16:04:29 -0600
Title: While We Cry (Live - Instrumental)
Album: Ledbetter Heights
Artist: Kenny Wayne Sheppard
Transcribed by: David Gurak ([email protected])
*NOTE* I didn't do much with timing, but I did my best to add times when parts start so you could help keep track with my tab. This is only my interpretation of how to play this, so its not totally right. There may be mistakes.. if there are, my most humble apologies. Heh.. anyways, If you have any corrections.. PlEaSe e-mail your tab to me cuz this is a great song.
I only have the clean guitar part tabbed. I'm working on the rest, so I'll put that up when I have it. Have fun :)
Clean Guitar
E |-----------------------------------------7-7-----7h9-7--|
B |---------------------------------------7-------7-7---7--|
G |--------------9h11-----------------8-9-------9---9---9--|
D |---------9h11------9--9h11------------------------------|
A |----9h11-------------------11---------------------------|
E |0-0-0-------------------------7-7-----------------------|
 
E |------5-5h7-7-7-55h7p5--12--12--9p7---------------------|
B |--7\5-5-5---5-5-55-----------------9--------------------|
G |--8\6-6-6---6-6-66------------------9h11p9--------------|
D |--9\7-7-7---7-7-77----7-------------------11-9h11p9h11p9|
A |--------------------------------------------------------|
E |--------------------------------------------------------|
 
E |-------------------------------------7------7-7h9p7-----|
B |-----------------------------------7------7---7---------|
G |------------9h11---------------8-9------9-----9---------|
D |--------9h11----9-9h11p9----------------------------9---|
A |----9h11----------------11------------------------------|
E |0-0-0----------------------7-7--------------------------|
 
E |----5-5h7-7-7-55h7p5---/12-12--9p7----------------------|
B |7\5-5-5---5-5-55------------------9---------------------|
G |8\6-6-6---6-6-66-------------------9h11p9---------------|
D |9\7-7-7---7-7-77-----7-------------------11-9h11p9h11p9-|
A |--------------------------------------------------------|
E |--------------------------------------------------------|
(0:41)
E |--------------------------------------------9p7---------|
B |9---12h14-12---9-------------------------------9--------|
G |9----------------13-11\9/11-11b13r11-9h11p9-----9h11p9--|
D |9-----------------------------------------------------11|
A |--------------------------------------------------------|
E |--------------------------------------------------------|
 
E |--------------------------------------------------------|
B |-------------9-------12h14-12----9--------12------------|
G |-------------9----------------------11/13----11---------|
D |-9h11p9h11p9-9----------------------------------9h11----|
A |--------------------------------------------------------|
E |--------------------------------------------------------|
E |-------------------9p7----------------------------------|
B |----------------------9---------------------9-----------|
G |9-11b13r11-9h11p9------9h11p9---------------9-----------|
D |-----------------------------11-9h11p9h11p9-9-----------|
A |--------------------------------------------------------|
(1:12)
E |--------------------------------------------------------|
B |------------------------15/17-15/17/19-20h21p20h21p20h21|
G |11/13/16-13/16/18-16/18---------------------------------|
D |--------------------------------------------------------|
A |--------------------------------------------------------|
E |--------------------------------------------------------|
(1:27)
E |-----------------------------12-------------------------|
B |20-17p15------------------------------------------------|
G |---------18p16-16p13-13p11-9----------9-/9-------9-9----|
D |---------------------------------9-11-------9h11--------|
A |--------------------------------------------------------|
E |--------------------------------------------------------|
 
E |--------------------------------------------------------|
B |-------------------------------------12-----------------|
G |11b13-------9-11b13r11---9-11-11---9---13-11h13----9-/11|
D |-------9h11-------------------------------------11------|
A |--------------------------------------------------------|
E |--------------------------------------------------------|
 
E |--------------------------------------------------------|
B |--12--12------------------------------------------------|
G |13--13--13-\9-11b12r11----11b12r11-9-11-11b13-----------|
D |--------------------------------------------------------|
A |--------------------------------------------------------|
E |--------------------------------------------------------|
(1:43)
E |-----12-12-14b15-------12-15b16r15-12-14-14---12-14-15--|
B |12h14-------------12h14---------------------------------|
G |--------------------------------------------------------|
D |--------------------------------------------------------|
A |--------------------------------------------------------|
E |--------------------------------------------------------|
 
E |16-18-14------------------------------------------------|
B |---------12-------------------------11-10-10h11-9-7-----|
G |------------11-11h13-11-11h13-11-9--11----10h11-----9-7-|
D |--------------------------------------------------------|
A |--------------------------------------------------------|
E |--------------------------------------------------------|
(2:00)
E |--------------------------------------------------------|
B |-------------12h14-12--9---------------13b14r13---------|
G |-------------------------/13-11\9-9/11-12b13r12-9h11-9--|
D |9-7-5---------------------------------------------------|
A |------7-------------------------------------------------|
E |--------------------------------------------------------|
E |9p7-----------------------------------------------------|
B |---9---------------------9-----12h14-12-9---------------|
G |----9h11p9--------9------9----------------/13-11\9-9/11-|
D |----------11-9h11--11p9--9------------------------------|
 
E |----------------------------------9p7-------------------|
B |-------------------------------------9------------------|
G |----9h11p9----9h11p9----9h11p9/11-----9h11p9-------9----|
D |9h11------9h11------9h11--------------------11-9h11-11p9|
A |--------------------------------------------------------|
E |--------------------------------------------------------|
(2:31)
E |----------12--12-14b15-------12-14b15-15-15r14-12-14-14-|
B |-9---12h14--14---------12h14----------------------------|
G |-9------------------------------------------------------|
D |-9------------------------------------------------------|
A |--------------------------------------------------------|
E |--------------------------------------------------------|
 
E |-15h16-15-12-12h14-12-----------------------------------|
B |----------------------12h14-12------------12-11---------|
G |-------------------------------11h13p11-9-12-11---11h13-|
D |-----------------------------------------------12-------|
A |--------------------------------------------------------|
E |--------------------------------------------------------|
 
E |------------------------------11-14b15r14-12-14b16------|
B |11-13-13b14b13-11h13p11-11-13---------------------------|
G |--------------------------------------------------------|
D |--------------------------------------------------------|
A |--------------------------------------------------------|
E |--------------------------------------------------------|
(2:47)
E |-----12--------------12-14b15-12-14-14------------------|
B |12h14---12h14p12-12h14------------------13h15-12--------|
G |------------------------------------------------11h13-11|
D |--------------------------------------------------------|
A |--------------------------------------------------------|
E |--------------------------------------------------------|
(2:57)
E |------------------12-12h14-12---------------------------|
B |--------------/14------------12-12h14-12------9h11------|
G |9h11-9----9-9---------------------------13-11-9-9---/13-|
D |-------11-----------------------------------------------|
A |--------------------------------------------------------|
E |--------------------------------------------------------|
 
E |-------12----12--15/18-16-14-12-14b15----12---14b15-12--|
B |-12-14----14---------------------------14--14-----------|
G |--------------------------------------------------------|
D |--------------------------------------------------------|
A |--------------------------------------------------------|
E |--------------------------------------------------------|
(3:08)
E |14-14---12-/18-16-14h15p14----12--15-17-14b15r14-12-14--|
B |---------------------------14---------------------------|
G |--------------------------------------------------------|
D |--------------------------------------------------------|
(3:13)
E |12-0----------------------------------------------------|
B |------------14-12---------------------------------------|
G |-------9/11-------13-11b12r11-9-11b12r11-9--------------|
D |--------------------------------------------------------|
A |--------------------------------------------------------|
E |--------------------------------------------------------|
 
E |11-10-11-10-11-10-11-10-11-10-11-10-11-10-11-10-11-10---|
B |11-10-11-10-11-10-11-10-11-10-11-10-11-10-11-10-11-10---|
G |--------------------------------------------------------|
D |--------------------------------------------------------|
A |--------------------------------------------------------|
E |--------------------------------------------------------|
 
E |11-10-11-10-11-10-11-10-11----------9-8-----------------|
B |11-10-11-10-11-10-11-10-11-9b10r9-7-9-8-9----12-14b15r14|
G |----------------------------------------9-/13-----------|
D |--------------------------------------------------------|
A |--------------------------------------------------------|
E |--------------------------------------------------------|
(3:29)
E |--------------12---12-14b15------12---------------------|
B |12h14-12--/14---14------------14----14-12---------------|
G |-----------------------------------------/13-11b12b11---|
D |--------------------------------------------------------|
A |--------------------------------------------------------|
E |--------------------------------------------------------|
 
E |--------------------------------------------------------|
B |--------------------------------------------------------|
G |-9/11-11\9----------------------------------------------|
D |--------------------------------------------------------|
A |--------------------------------------------------------|
E |--------------------------------------------------------|
 




Ваше мнение



Капча