One foot on the path
tabbed by Luca

This song is a 12-bar blues based on the riff below.
If you play it in the key of G#, the riff will change in C# and D#... of course!
The last thing... I used the ^ symbol for legato parts.

(Riff in G#)
--------------4--4-----4-----------------------
-----------4--4--4--7--4--6^4------------------
-----4^5------------------6^4------------------
-----4-------------------------6---------------
-----------------------------------------------
--4--------------------------------------------

(Riff in C#)
--------------9--9------9----------------------
-----------9--9--9--12--9--11^9----------------
-----9^10------------------11^9----------------
-----9---------------------------11------------
-----------------------------------------------
--9--------------------------------------------

(Riff in D#)
-----------------11--11------11----------------
-------------11--11--11--14--11--13^11---------
------11^12----------------------13^11---------
------11--------------------------------13-----
-----------------------------------------------
--11-------------------------------------------

The second guitar plays...

(Riff in G#)
----------------------------------------------
----------------------------------------------
----------------------------------------------
----------3--4--------------------------------
-----2^3--------(2)--4^2----------------------
--4-------------------------------------------

(Riff in C#)
----------------------------------------------
----------------------------------------------
----------3--4--------------------------------
-----2^3--------(2)--4^2----------------------
--4-------------------------------------------
----------------------------------------------

(Riff in D#)
----------------------------------------------
----------------------------------------------
----------5--6--------------------------------
-----4^5--------(4)--6^4----------------------
--6-------------------------------------------
----------------------------------------------




Ваше мнение



Капча