From [email protected] Fri May 16 08:17:00 1997
Date: Tue, 13 May 1997 16:51:45 -0400 (EDT)
From: larry alvey
To: [email protected]
Subject: TAB:Ledbetter Heights by Kenny Wayne Shepherd

Tune down 1/2 step

Eb--0-0-------------
Bb--8-8-------------
Gb--7-7------------- Play 4x
Db--6-6-------------
Ab--7-7-----5--5-7--
Eb--0-0-5-7---7-----

-5-5----------------
-5-5----------------
-6-6---------------- Play 2x
-7-7-----5---5-7----
-7-7-5-7---7--------
-5-5----------------

-0-0----------------
-8-8----------------
-7-7---------------- Play 2x
-6-6----------------
-7-7-----5---5-7----
-0-0-5-7---7--------

-7-7-------------7-7-------------0-0-------------7-7-7-7-7-7-7-7--
-7-7-------------7-7-------------8-8-------------7-7-7-7-7-7-7-7--
-8-8-------------6-6-------------7-7-------------8-8-8-8-8-8-8-8--
-9-9-----7---7-9-6-6-----5---5-7-6-6-------------9-9-9-9-9-9-9-9--
-9-9-7-9---9-----7-7-5-7---7-----7-7-----5---5-7-9-9-9-9-9-9-9-9--
-7-7-------------5-5-------------0-0-5-7---7-----7-7-7-7-7-7-7-7--

The solo is played on the 12th fret in the key of E. Please mail any
corrections or comments to [email protected]




Ваше мнение



Капча