-------------------------------------------------------------------------------
No More Tears - OZZY
-------------------------------------------------------------------------------
Tabbed By :Briana Campbell
e-mail:[email protected]
Tuning:normal
G|-- 4H6------------4H6-------------4H6-------------------------------------
D|--------------------------------------------------------------------------
A|----------4-4--------------4-4-----------4--------------------------------
E|--------------------------------------------------------------------------
G|---------------4----------------------------------------------------------
D|--------4H6--------6-4H6------------------------------------/7-----------
A|--4-----------------------------444--4446--44444447--44444----------------
E|--------------------------------------------------------------------------
G|----------------4---------------------------------------------------------
D|----------4H6-------6--4H6------------------------------------------------
A|-4444---------------------------6666666677777-----------------------------
E|-----------------------------------------------00-------------------------

G|-----6-------4-----3-----2------------------------------------------------
D|--------------------------------------------------------------------------
A|-4-------4------4-----4---------------------------------------------------
E|--------------------------------(22222/4)---------------------------------
PLay agian when you get here ^ you play the next part instead
G|--------------------------------------------------------------------------
D|--------------------------------------------------------------------------
A|----------------------------------------------4--42---442-----------------
E|-(2320)---------2222222222222222--0--0--202---------4-----4------3x-------
G|--------------------------------------------------------------------------
D|--------------------------------------------------------------------------
A|------------------------------------00002222------------------------------
E|-0--0--0000--2--2--2222-4--4--4444----------------------------------------
| / slide up
| slide down
| h hammer-on
| p pull-off
| ~ vibrato
| + harmonic
| x Mute note
===============================================================================




Ваше мнение



Капча