Razzberry Mockery
Artist : Keith Caputo
Album : Died laughing
Song : Razzberry Mockery
From : Thomas Juul Krahn
Riff 1 (intro solo)
e------------------------------|
B------------------------------|
G------------------------------|
D-5-7-5------------------------|
A-------8-7--55---5-----8--7---|
E--------------------8---------|
Intro Dm Bb F C (&Riff1)x2
Verse 1
Dm Bb F C
Paralyzed in sensitivity I smoked a drink, humor is coming over me
Dm Bb F C
I sprung a leak on society Ignorance, it used to follow me
Dm Bb F C
Treachery and hypocrisy I figured out my crazy sexuality
Dm Bb F C
I'm not the way I used to be Cleanliness has thwacked me off my feet
Chorus
Dm Bb F C (&Riff1)
Keep on keepin' on Just walk on through And don't be scared
Dm Bb F C (&Riff1)
Keep on keepin' on Just walk on through
Verse 2
Dm Bb F C
Pollinate another sour seed Politics it's criminal and greed
Dm Bb
They're buttered up and full of grease
F C
I know your kind, facades don't work with me
Dm Bb F C
It's warm inside a crucifix Narrow flow, shame on you you bitch
Dm Bb F C
The earth's a mess and feeling cowardly Disrespect, razzberry mockery
Chorus 2
Dm Bb F C (&Riff1)
Keep on keepin' on Just walk on through And don't be scared
Dm Bb F C (&Riff1)
Keep on keepin' on Just walk on through And don't be scared
Dm Bb F C (&Riff1)
Keep on keepin' on Just walk on through And don't be scared
Dm Bb F C (&Riff1)
Keep on keepin' on Just walk on through
Solo Dm Bb F C (x4)
Solo
e-10~~~~--10-12-13--17~--15-13-15~~~--15b17r15-13-15------|
B----------------------------------------------------15---|
G---------------------------------------------------------|
D---------------------------------------------------------|
A---------------------------------------------------------|
E---------------------------------------------------------|
Dm Bb F C Dm
e----------------------------------------------------|
B-13h15p13----13-------------------------------------|
G----------14----14~~~~--14p12--12~~~---12--12-14----|
D-----------------------------15----------15---------|
A----------------------------------------------------|
E----------------------------------------------------|
Bb F C
e----------------------------------------------------|
B-13~~~~1513~~~--13-15-13-------13------------------|
G--------------------------12-14----12b14r12--12-----|
D-------------------------------------------15-------|
A----------------------------------------------------|
E----------------------------------------------------|
Dm Bb F C
e-------------------------------------------------------------|
B---------------------------------------15--------------------|
G-10-10-10-107---10-10-107---10--12b14---12-------12~~~~~~--|
D-10-10-10-107---10-10-107---10-------------15-12-----------|
A-------------------------------------------------------------|
E-------------------------------------------------------------|
Bridge (acoustic slow)
Dm Bb F C
It's warm inside a crucifix Narrow flow, shame on you you bitch
Dm Bb
You're still the fool and your perception is bleached
F C
My chance has come to purify the weak
Chorus3
Dm Bb F C (&Riff1)
Keep on keepin' on Just walk on through And don't be scared
Dm Bb F C (&Riff1)
Keep on keepin' on Just walk on through
Outro
Dm Dm Dm Dm (x4)


Ваше мнение



Капча