This intro is very easy, and u can use it in the most of the first verse to.
It goes like this:

E----------------------|----------------------|
B-------3h2---------0-2|-------5h4-----------4|
G-----2-----2----------|-----4-----4-------4--|
D---2---------2---2----|---4---------4---4----|
A-0-------------0------|-0-------------0------|
E----------------------|----------------------|
E-------------------0----|----------------------|
B-------0-----0-------0--|-------3h2---------0-2|
G-----2---2-----1-------2|-----2-----2----------|
D---2-------2-----2------|---2---------2---2----|
A-2----------------------|-0-------------0------|
E------------------------|----------------------|




Ваше мнение



Капча