Katatonia - Without God
>From the Album: Dance of December Souls
_______________________________________________________
Riff 1 (x8)
|------------------------------|
|------------------------------|
|------------------------------|
|------------------------------|
|-2---2/7-7-7/5-5-3-2-0-2------|
|-0-----------------------3----|
Riff 2 (x2)
|-------------------------------------|
|-------------------------------------|
|-------------------------------------|
|-------------------------------------|
|-3-2-----3-2-----3-2-----3-2-----3---|
|-----3-2-----3-2-----3-1-----3-1-1---|
Riff 3A (x2)
|----------------------------------|
|----------------------------------|
|----------------------------------|
|----------------------------------|
|---5-7-5---8-7-----5-7-5----------|
|-5-------6-----8-5-------5-3-1-0--|
Riff 3B (x2)
|-----------------------------------|
|-----------------------------------|
|-----------------------------------|
|---3-5-3---6-5-----3-5-3-----------|
|-3-------4-----6-3-------3-1-------|
|-----------------------------4-3---|
Repeat Riff 3A & 3B
Fill in Riff3B(in the last time)
|-------|
|-------|
|-------|
|-------|
|-3--5--|
|-1--3--|
Riff 4 (x2)
|--------------|
|--------------|
|--------------|
|--------------|
|-7--5--2--3---|
|-5--3--0--1---|
Riff 5 (x1)
|--------------------------------------------------|
|--------------------------------------------------|
|---------------------------7~-----5-----2-----3---|
|--------------------------------------------------|
|-7--7--5--5--2--2--3--3--7-----5-----2-----3------|
|-5-----3-----0-----1-----5-----3-----0-----1------|
Repeat Riff 4
Riff 6A (x4)
|------------------------------------|
|------------------------------------|
|------------------------------------|
|----------------------------------7-|
|---5-7-5---5----------5-7-5---5/7---|
|-5-------6---6-5-5--5-------6-------|
Riff 6B (x2)
|-------------------------------------|
|-------------------------------------|
|----------------------------------7--|
|---5-7-5---5----------5-7-5---5/7----|
|-5-------6---6-5-6--5-------6--------|
|-------------------------------------|
Repeat Riff 6A ( x 1 + 1/2)
Riff 7 (x4)
|------------------------------|
|------------------------------|
|------------------------------|
|------------------------------|
|-7--5/7-5-2/5-2-3/5-3-3-2-----|
|-5--3/5-3-0/3-0-1/3-1-----3---|
Riff 8 (x8) (acoustic)
|-------------------------------------|
|-------------------------------------|
|-------------------------------------|
|-------------------------------------|
|---7---7---7---7---8---10--8-7-------|
|-5---5---5---5---5---5----5----8-5---|
Riff 3A
Riff 3B
Riff 3A
Riff 3B
Riff 4
Riff 5
Riff 4
Riff 6A
Riff 6B
Riff 6A ( x 1 + 1/2)
Riff 7
Any Corrections: [email protected]





Ваше мнение



Капча