KATATONIA - THIS PUNISHMENT
From the Album TONIGHT'S DECISION
Copyright 1999 - CENTURY MEDIA
Version 1.0 - JANUARY 2000
Transcribed by: Haris Durakovic ([email protected])
For Questions, Comments, Newest Version, or Corrections contact me
Check Out Death Warp, With More Transcriptions On It:
http://tiger.towson.edu/~dalvis1
.. - palm mute / - slide up to
- slide down to ~ - vibrato
h - hammer on b - bend
p - pull off Suffixes for bend
ph - pinch harmonic
f - full bend h - half bend
* - see comment r - release t - tap bend
X - percussion mute ~ - vibrato bend
@ - slight palm mute () - ghost note, sustained note
This punishment
Whole song is acoustic
Riff 1
|----0-----0-----0-----0-|
|----3-----3-----3-----3-|
|----0-----0-----0-----0-|
|-2-----2-----2-----2----|
|------------------------|
|------------------------|
Riff 2
|----0-----0-----0-----0-|
|----3-----3-----3-----3-|
|----0-----0-----0-----0-|
|-2-----------0----------|
|-------3-----------3----|
|------------------------|
Riff 3
|----0-----0-----0-----0-----0-----0-----0-----0-|
|----3-----3-----3-----3-----3-----3-----3-----3-|
|----0-----0-----0-----0-----0-----0-----0-----0-|
|-2-----------0----------------------------------|
|-------3-----------3-----4-----4-----3-----3----|
|------------------------------------------------|
Repeat riffs 1, 2 and 3
Repeat riff 1
Rhythm on lead: Repeat 2 and 3
End of song: let riff 1 fade out
Lead
1. 2.
|-----|:---------------------------------------:|------------|----------------|
|-----|:--------------5------------------------:|------------|----------------|
|-----|:------------2-4-4-4-2-----------2~--4--:|------------|----------------|
|-2~--|:--4--5-4-5~------------5~--4h5--------:|--4h5-/-2~--|--4h5--7~-------|
|-----|:---------------------------------------:|------------|----------------|
|-----|:---------------------------------------:|------------|----------------|
|------------------------|:-----------------------:|
|------------------------|:-----------------5-----:|
|-4h5--------------------|:-------7~---4h6--6----:|
|-----5h7-2~--4-5-4h5p4--|:--2~---------------5~--:|
|------------------------|:-----------------------:|
|------------------------|:-----------------------:|
Check Out Death Warp, With More Transcriptions On It:
http://tiger.towson.edu/~dalvis1





Ваше мнение



Капча