tatonia - TearGas
Tabed by Archon(Архангел) E-Mail: [email protected]
Intro played clean, with this chords:
/G#m/F#/C#m/G#m//:
Intro on guitar2 played free, may be like this:
_____G#m_____ _____F#_____ ____C#____ ____G#m____
E----------11---------------9-------------4-------------4--
B----12---------------11--------------5-------------4------
G-13----13---------11----11---------6---6---------4---4----
D----------------------------------------------------------
A----------------------------------------------------------
E----------------------------------------------------------
Then goes distorted Riff1:
E/G#m/H/C#//:
Solo on it: (play it with music to understand)
Riff 1.1
E----------------------------------------------------------
B-12--12--12--12--12--12--11--11--11--11--11--11--11-------
G----------------------------------------------------------
D----------------------------------------------------------
A----------------------------------------------------------
E----------------------------------------------------------
Riff 1.1 (continue)
E----------------
B-12--12--11--12-
G----------------
D----------------
A----------------
E----------------
Repeat Riff1.1 two times;then goes riff 1.2 at 1st time and
Riff 1.3 at 2nd.
So to understand:
1st time Riff1.1/Riff1.1/Riff1.2//.
2nd time Riff1.1/Riff1.1/Riff1.3//.
Riff1.2
E------------------------------------------------------------
B------------------------------------------------------------
G-11-11-11-11-11-11-9-9-9-9-9-9-8-8-8-8-[6(12 times may be)]-
D------------------------------------------------------------
A------------------------------------------------------------
E------------------------------------------------------------
Riff1.3
E-11-11-11-11-11-11-9-9-9-9-9-9-7-7-7-7-4-4-4-4-4-4-6-6-6-6-6-6-
B---------------------------------------------------------------
G---------------------------------------------------------------
D---------------------------------------------------------------
A---------------------------------------------------------------
E---------------------------------------------------------------
_______________________________________________
All verse played with the same chords as intro.
_______________________________________________
---------------------------
Chorus played like a Riff1.
---------------------------
Interlude played like chorus, but with another rythm
Solo for Interlude:
E-18----16----18-16-18-19-18-16----11---9--7--6-6~7-4-[3(on 2nd t.)]
B------------------------------------------------------
G------------------------------------------------------
D------------------------------------------------------
A------------------------------------------------------
E------------------------------------------------------
After Solo - Interlude, repeat Riff1 with all solos. It will be
the end of this wounderful song.
Another songs like a Disposession, Tonight´s Music will be tabed soon.
If you´ll have any problems with tabs E - Mail me.





Ваше мнение



Капча