KATATONIA - SULPHUR
From the Album TEARGAS E.P.
Copyright 2001 PEACEVILLE RECORDS
Version 1.0 - OCT 2001
Transcribed by: HARIS DURAKOVIC
For Questions, Comments, Newest Version, or Corrections contact
Haris Durakovic: at [email protected]

Check Out
- DEATH8699 - THE ultimate Metaltab site at:
http://www.death8699.com
- METALTABS at:
http://www.metaltabs.com
- DEATH WARP, with More Transcriptions On It:
http://www.sorrowsend.com/DeathWarp/

.. - palm mute / - slide up to
- slide down to ~ - vibrato
h - hammer on b - bend
p - pull off Suffixes for bend
ph - pinch harmonic
f - full bend h - half bend
* - see comment r - release t - tap bend
X - percussion mute ~ - vibrato bend
@ - slight palm mute () - ghost note, sustained note
Tune Gtr to D
--S U L P H U R--
Riff A Acoustic (first 2 times only Gtr I)
|--------0------10----8-----------------0------------5-----|
|------8---8---------------10---------8---8--------0---0---|
|---10-------10----10---10----10---10-------10---5-------5-|Gtr
|-0------------------------------0-------------0-----------| I
|----------------------------------------------------------|
|----------------------------------------------------------|
| |
|----------------------------------------------------------|
|------5---5----3-----1---------------5---5--------3-------|
|---2----2---2-----2----2--2--3----2----2---2----2---2---2-|Gtr
|-0------------------------------0-------------3-------2---| II
|----------------------------------------------------------|
|----------------------------------------------------------|

Riff B
|-------3-----------5-----------3-----------5-----|
|-----0---0-------0---0-------0---0-------0---0---|
|---5-------5---5-------5---5-------5---5-------5-|Gtr
|-0-----------0-----------0-----------0-----------| I
|-------------------------------------------------|
|-------------------------------------------------|
| |
|-------------------------------------------------|
|-----1---1-------1---1-------1---1-------1---1---|
|---2---2---2---2---2---2---2---2---2---2---2---2-|Gtr
|-0-----------0-----------0-----------0-----------| II
|-------------------------------------------------|
|-------------------------------------------------|

Riff C
|-------5-----------3-----------3-----------3-----|
|-----3---3-------3---3-------3---3-------3---3---|
|---5-------5---5-------5---4-------4---3-------3-|Gtr
|-0-----------0-----------0-----------0-----------| I
|-------------------------------------------------|
|-------------------------------------------------|
| |
|-------------------------------------------------|
|-----3-----3-----3-----3-----3-----3-----3-----3-|
|---2-----2-----2-----2-----2-----2-----2-----2---|Gtr
|-0-----0-----0-----0-----0-----0-----0-----0-----| II
|-------------------------------------------------|
|-------------------------------------------------|
Riff D Electric
|-----------------------------------------------------------------|
|-----------------------------------------------------------------|
|-----------------------------------------------------------------|Gtr
|-5-5-5-3-3-3-3-3-3-3-5-2-2-2-2-2-9-7-9-7-9-7-9-7-9-7-9-7-9-7-9-7-| I
|-----------------------------------------------------------------|
|-----------------------------------------------------------------|
| |
|-----------------------------------------------------------------|
|-----------------------------------------------------------------|
|-7-7-7-7-7-7-7-7-2-2-2-2-2-2-2-2---------------------------------|Gtr
|-7-7-7-7-7-7-7-7-2-2-2-2-2-2-2-2-2-2-2-2-2-2-2-2-2-2-2-2-2-2-2-2-| II
|-5-5-5-5-5-5-5-5-0-0-0-0-0-0-0-0-2-2-2-2-2-2-2-2-2-2-2-2-2-2-2-2-|
|---------------------------------0-0-0-0-0-0-0-0-0-0-0-0-0-0-0-0-|

|-----------------------------------------------------------------|
|-----------------------------------------------------------------|
|-----------------------------------------------------------------|Gtr
|-5-5-5-3-3-3-3-3-3-3-5-2-2-2-2-2-9-7-9-7-9-7-9-7-9-7-9-7-9-7-9-7-| I
|-----------------------------------------------------------------|
|-----------------------------------------------------------------|
| |
|-----------------------------------------------------------------|
|-----------------------------------------------------------------|
|-7-7-7-7-7-7-7-7-5-5-5-5-5-5-5-5---------------------------------|Gtr
|-7-7-7-7-7-7-7-7-5-5-5-5-5-5-5-5---------------------------------| II
|-5-5-5-5-5-5-5-5-3-3-3-3-3-3-3-3---------------------------------|
|---------------------------------0-0-0-0-0-0-0-0-0-0-0-0-0-0-0-0-|

Riff E
|-----------------------------------------------------------------|
|-------------------------3-3-3-3-4-4-4-4-4-4-4-4-----------------|
|-5-5-5-5-5-5-5-5-5-5-5-5-------------------------------------2-2-|Gtr
|-------------------------------------------------5-5-5-5-5-5-----| I
|-----------------------------------------------------------------|
|-----------------------------------------------------------------|
| |
|---------------------------------8-8-8-8-8-8-8-8-8-8-8-8-8-8-8-8-|
|---------------------------------8-8-8-8-8-8-8-8-8-8-8-8-8-8-8-8-|
|-5-5-5-5-5-5-5-5-5-5-5-5-5-5-5-5-5-5-5-5-5-5-5-5-5-5-5-5-5-5-5-5-|Gtr
|-5-5-5-5-5-5-5-5-5-5-5-5-5-5-5-5-5-5-5-5-5-5-5-5-5-5-5-5-5-5-5-5-| II
|-3-3-3-3-3-3-3-3-3-3-3-3-3-3-3-3---------------------------------|
|-----------------------------------------------------------------|

|-----------------------------------------------------------------|
|-----------------------------------------------------------------|
|-4-4-4-5-5-5-----------------------------------------------------|Gtr
|-------------2-2-2-2-2-2-2-2-2-2-5-5-5-5-5-5-5-5-7-7-7-7-7-7-7-7-| I
|-----------------------------------------------------------------|
|-----------------------------------------------------------------|
| |
|-----------------------------------------------------------------|
|-----------------------------------------------------------------|
|-2-2-2-2-2-2-2-2-2-2-2-2-2-2-2-2---------------------------------|Gtr
|-2-2-2-2-2-2-2-2-2-2-2-2-2-2-2-2-5-5-5-5-5-5-5-5-3-3-3-3-3-3-3-3-| II
|-0-0-0-0-0-0-0-0-0-0-0-0-0-0-0-0-5-5-5-5-5-5-5-5-3-3-3-3-3-3-3-3-|
|---------------------------------3-3-3-3-3-3-3-3-1-1-1-1-1-1-1-1-|

Riff F (clean) (Gtr II only 2nd time with delay)
|-----------------------------------------------------------------|
|-----------------------------------------------6p5---------------|
|-----------------------------------------------------------------|Gtr
|-----------------------------------------------------------------| I
|-----------------------------------------------------------------|
|-----------------------------------------------------------------|
| |
|-----------------------------------------------------------------|
|-3-3-3-3-3-3-3-3-3-3-3-3-3-3-3-3-3-3-3-3-3-3-3-5-5-5-5-3-3-3-3-3-|
|-2-2-3-2-3-2-2-3-3-3-3-3-3-3-3-3-2-2-3-2-3-2-2-5-5-5-5-3-3-3-3-3-|Gtr
|-0-0-0-0-0-0-0-0-0-0-0-0-0-0-0-0-0-0-0-0-0-0-0-0-0-0-0-0-0-0-0-0-| II
|-----------------------------------------------------------------|
|-----------------------------------------------------------------|

|-----------------------------------------------------------------|
|-----------------------------------------------------------------|
|-----------------------------------------------------------------|Gtr
|-----------------------------------------------------------------| I
|-----------------------------------------------------------------|
|-----------------------------------------------------------------|
| |
|-----------------------------------------------------------------|
|-3-3-3-3-3-3-3-3-3-3-3-3-3-3-3-3-3-3-3-5-5-5-5-3-3-3-3-6-6-6-6-6-|
|-2-2-3-2-3-2-2-3-3-3-3-3-3-3-3-2-2-2-2-5-5-5-5-3-3-3-3-6-6-6-6-6-|Gtr
|-0-0-0-0-0-0-0-0-0-0-0-0-0-0-0-0-0-0-0-0-0-0-0-0-0-0-0-0-0-0-0-0-| II
|-----------------------------------------------------------------|
|-----------------------------------------------------------------|

Bridge (electric)
|---------------------------------------------------|
|-8-------10----------------------------------------|
|-------------------9-------------------------------|Gtr
|-5--------7----------------------------------------| I
|-------------------7-------------------------------|
|---------------------------------------------------|
| |
|---------------------------------------------------|
|---------------------------------------------------|
|---------------------------------------------------|Gtr
|-5--------3--------2-2-2-2-2-2-2-2-2-2-2-2-2-2-2-2-| II
|-5--------3--------2-2-2-2-2-2-2-2-2-2-2-2-2-2-2-2-|
|-3--------1--------0-0-0-0-0-0-0-0-0-0-0-0-0-0-0-0-|

Riff G * **
|-----------------------------------------------------------------|
|-----------------------------------------------------------------|
|-4-4-4-5-5-5-7-7-5-5-5-4-4-4-------------------------------------|Gtr
|-----------------------------7-7-5-5-5-5-5-5-4-4-4-0-0-0-0-0-0-0-| I
|-----------------------------------------------------------------|(harmonized)
|-----------------------------------------------------------------|
| |
|-----------------------------------------------------------------|
|-----------------------------------------------------------------|
|-----------------5-5-5-5-5-5-5-5-----------------2-2-2-2-2-2-2-2-|Gtr
|-5-5-5-5-5-5-5-5-5-5-5-5-5-5-5-5-2-2-2-2-2-2-2-2-2-2-2-2-2-2-2-2-| II
|-5-5-5-5-5-5-5-5-3-3-3-3-3-3-3-3-2-2-2-2-2-2-2-2-0-0-0-0-0-0-0-0-|
|-3-3-3-3-3-3-3-3-----------------0-0-0-0-0-0-0-0-----------------|

Note *
|-----|
|-----|(think it's
|-7/9-| played
|-----| like this)
|-----|
|-----|

Note **
|-----|
|-----|(think it's
|-4p0-| played
|-----| like this)
|-----|
|-----|





Ваше мнение



Капча