song:Murder Jeff Peters
Band:Katatonia [email protected]
Album:Brave Murder Day
Intro-This is not what he plays, but its the closest I can get w/my guitar.
|-6-6-6-6-6-6-6-6-6-6-6-6-6-6-|* While strumming, hit notes on top 3 strings
|-6-6-6-6-6-6-6-6-6-6-6-6-6-6-|* as artificial harmonics w/fdbk. This is tricky
|-8-8-8-8-8-8-8-8-8-8-8-8-8-8-|* so gain the shit out of the guitar. This
|-8-8-8-8-8-8-8-8-8-8-8-8-8-8-| continues behind the main riff for most of the
|-6-6-6-6-6-6-6-6-6-6-6-6-6-6-| song.
|-----------------------------|
Main riff. Play chords with relaxed feel,alternating up down picks.
|-----------------------------------------------------------------|
|-----------------------------------------------------------------|
|-----------------------------------------------------------------|
|-13-13-13-13-13-13-13-13-11-11-11-11-11-11-11-11-9-9-9-9-9-9-9-9-|
|-13-13-13-13-13-13-13-13-11-11-11-11-11-11-11-11-9-9-9-9-9-9-9-9-|
|-11-11-11-11-11-11-11-11--9--9--9--9--9--9--9--9-7-7-7-7-7-7-7-7-|
continuation of main riff
|-----------------|
|-----------------|
|-----------------|
|-6-6-6-6-6-6-6-6-|
|-6-6-6-6-6-6-6-6-|
|-4-4-4-4-4-4-4-4-|
riff 2
|-----------------------------------------------------------------|
|-----------------------------------------------------------------|
|-----------------------------------------------------------------|
|-----------------------------------------------------------------|
|-13-13-13-13-13-13-13-13-9-9-9-9-9-9-9-9-13-13-13-13-13-13-13-13-|
|-11-11-11-11-11-11-11-11-7-7-7-7-7-7-7-7-11-11-11-11-11-11-11-11-|
|---------------------|
|---------------------|
|---------------------|
|---------------------|
|-11-11-11-11-9-9-6-6-|
|--9--9--9--9-7-7-4-4-|
rest coming later


Ваше мнение



Капча