Katatonia - Elohim Meth
From the Album Dance of December Souls
Copyright 1993 No Fashion Records
Version 1.0 - December 2000
Transcribed by: Corpse from Ungarn
For Questions, Comments, Newest Version, or Corrections contact
Corpse: at [email protected]
Check Out Death Warp, With More Transcriptions On It:
http://tiger.towson.edu/~dalvis1
.. - palm mute / - slide up to
- slide down to ~ - vibrato
h - hammer on b - bend
p - pull off Suffixes for bend
ph - pinch harmonic
f - full bend h - half bend
* - see comment r - release t - tap bend
X - percussion mute ~ - vibrato bend
@ - slight palm mute () - ghost note, sustained note
Tune Gtr to E
Elohim Meth
Riff A - Guitar 1 x 2 1.
|----------------------------------------0-0-1-1|-0-0--|
|1-1--1-0-0--0-------------1-1--1-3-3--3--------|------|
|--------------2-2--0-2-2----------------0-0----|------|
|2-2--2-0-0--0-------------2-2--2-3-3--3--------|------|
|--------------3-3----0-0-----------------------|-0-0--|
|-------------------3---------------------------|------|
Riff B - Guitar 1 x 4 1.,2.,4. 3.
|-5---5--5---5--5---5---8---8---7--5---5--5---5--5---5-|-3---3-|-------3---3-|
|---5------5------5---5---6---6------3------3----------|---1---|-------------|
|--------------------------------------------------5---|-------|-5-4-5---5---|
|------------------------------------------------------|-------|-------------|
|------------------------------------------------------|-------|-------------|
|------------------------------------------------------|-------|-------------|
Riff B - Guitar 2 x 8
|--------------------|
|--------------------|
|--------------------|
|--------------------|
|0--0-0--0-0--0-0-0--|
|--------------------|
Riff C - Guitar 1
|0-0--0-0-0--0----------------------------------------------|
|--------------3-3--3-3-3--3-1-1--1-0-0--0----------------0-|
|------------------------------------------2-2----------2---|
|-------5-5--5-4-4--4-3-3--3-2-2--2-0-0--0------------2-----|
|0-0--0------------------------------------3-3--2---0-------|
|-------------------------------------------------3---------|
|-------------------------------------------------|
|-------------------------------------------------|
|----2-------2-------2-------2--------------------|
|--2---2-------2-------2-------2------------------|
|0------------------------------------------------|
|--------3-3-----1-1-----1-1----------------------| play this until
the end
Riff C - Guitar 2
|------------------------------------------------------------------|
|5h6-3-----------------------0---1-0-1-3-3/5--3p1-3--1p0-1---------|
|-------5p4-5--4p2-4--2p0-2----0---------------------------2-2/4-0-|
|------------------------------------------------------------------|
|------------------------------------------------------------------|
|------------------------------------------------------------------|
|------------------------------------------------------------------|
|1-0-1-3-3/5--3p1-3--1p0-1---1---5-3-5-6-6/8--6p5-6--5p3-5---------|
|--------------------------2---0---------------------------5-4-0---|
|------------------------------------------------------------------|
|------------------------------------------------------------------|
|------------------------------------------------------------------|
|-------------------------------|
|6-3-5-6-6/8--6p5-6--5p3-5------|
|--------------------------5-5-0|
|-------------------------------|
|-------------------------------|
|-------------------------------|
Check Out Death Warp, With More Transcriptions On It:
http://tiger.towson.edu/~dalvis1





Ваше мнение



Капча