KATATONIA - DISPOSESSION
From the Album LAST FAIR DEAL GONE DOWN
Copyright 2001 PEACEVILLE
Version 1.0 - JUL 2001
Transcribed by: HARIS DURAKOVIC
For Questions, Comments, Newest Version, or Corrections contact
HARIS DURAKOVIC: at [email protected]
Check Out Death Warp, With More Transcriptions On It:
http://www.wam.umd.edu/~ekubica
.. - palm mute / - slide up to
- slide down to ~ - vibrato
h - hammer on b - bend
p - pull off Suffixes for bend
ph - pinch harmonic
f - full bend h - half bend
* - see comment r - release t - tap bend
X - percussion mute ~ - vibrato bend
@ - slight palm mute () - ghost note, sustained note

--D I S P O S E S S I O N--
Riff A (first clean then distorted)
|-----------------------------------------------------|
|-0--0--0-0-0---0-0--0--0-0-0--0--0-0-0---0-0--0--0-0-|
|-4--4--4-4-6---6-6--6--6-6-0--0--0-0-6---6-6--6--6-6-|Gtr
|-4--4--4-4-7---7-7--7--7-7-2--2--2-2-7---7-7--7--7-7-| I
|-2--2--2-2-5---5-5--5--5-5-2--2--2-2-5---5-5--5--5-5-|
|-----------0---0-0--0--0-0-0--0--0-0-0---0-0--0--0-0-|

Riff B (while Gtr I plays Riff A distorted)
|----------------------------------------------------------------|
|--------------------------------------------/12--10-------------|
|--------9-11-9-11~---9-11-9------9-11-9-9~-----------12--9--11~-|Gtr
|-9-9~-----------------------9~----------------------------------| II
|----------------------------------------------------------------|
|----------------------------------------------------------------|
2.
|----------------|----------|
|----------------|-/10--10~-|
|-6h7-6-7~--7/9~-|----------|Gtr (repeat and end with 2.
|----------------|----------| II after 2nd time)
|----------------|----------|
|----------------|----------|
Riff C
|---------------------------------------------|
|---------------------------------------------|
|-10-10-10-10-----9--9--9--9------------------|Gtr
|-------------------------------10-10-10-10---| I
|-12-12-12-12----10-10-10-10-----8--8--8--8---|
|---------------------------------------------|
| |
|---------------------------------------------|
|---------------------------------------------|
|---------------------------------------------|Gtr
|---------------------------------------------| II
|-8--8--8--8-X-X-7--7--7--7-X-X-8--8--8--8----|
|-6--6--6--6-X-X-5--5--5--5-X-X-6--6--6--6----|
|---------------------------------------------|
|---------------------------------------------|
|-10-10-10-10-----9--9--9--9-7-7--9--9-10-10--|Gtr
|---------------------------------------------| I
|-12-12-12-12----10-10-10-10-8-8-10-10-12-12--|
|---------------------------------------------|
| |
|---------------------------------------------|
|---------------------------------------------|
|---------------------------------------------|Gtr
|---------------------------------------------| II
|-8--8--8--8-X-X-7--7--7--8--8--8--8--8--8--8-|
|-6--6--6--6-X-X-5--5--5--6--6--6--6--6--6--6-|
last ending
|---------------------------------|
|---------------------------------|
|---------------------------------|both
|---------------------------------|Gtrs
|-7-7-7-7-7-7-7-7-7-7-7-7-7-7-7-7-|
|-5-5-5-5-5-5-5-5-5-5-5-5-5-5-5-5-|
Riff D (clean)
|-------------------------------------------|
|-------------------------------------------|
|-2------------6-------------7------------2-|Gtr
|-4------------7-------------9------------4-| I
|-5------------9------------10------------5-|
|-------------------------------------------|

|--------------------------------------------------|
|--------------------------------------------------|
|-2------------6-------------7------------6------5-|
|-4------------7-------------9------------7------7-|
|-5------------9------------10------------9------8-|
|--------------------------------------------------|

Lead (while Gtr II plays riff A distorted)
|------------------------------------------------------|
|-12~----12-14-15p14p12-14--------12-14-15p14p12-14----|
|--------------------------14~----------------------14-|Gtr
|------------------------------------------------------| I
|------------------------------------------------------|
|------------------------------------------------------|
|----------------------|
|-15~----14~-----------|
|---------------1412~-|Gtr
|----------------------| I
|----------------------|
|----------------------|





Ваше мнение



Капча