KATATONIA - A DARKNESS COMING
From the Album TONIGHT'S DECISION
Copyright 1999 - PEACEVILLE RECORDS
Version 1.0 - JANUARY 2000

Transcribed by: Haris Durakovic ([email protected])

For Questions, Comments, Newest Version, or Corrections contact me

Check Out Death Warp, With More Transcriptions On It:
http://tiger.towson.edu/~dalvis1

.. - palm mute / - slide up to
- slide down to ~ - vibrato
h - hammer on b - bend
p - pull off Suffixes for bend
ph - pinch harmonic
f - full bend h - half bend
* - see comment r - release t - tap bend
X - percussion mute ~ - vibrato bend
@ - slight palm mute () - ghost note, sustained note

A darkness coming

Guitar 1

Acoustic
Riff 1 Riff 2
|-------0-----0---------------|---------------------------------|
|-------3-----3-------3---3-0-|---------------------------------|
|-----0-----0-------0---------|-----7-----7---------2-----2-----|
|---4-----4-------4-----------|---7-----7-----7---2-----2-----2-|
|-2-------------2-------2-----|-5-----5-----5---0-----0-----0---|
|-----------------------------|---------------------------------|

Riff 3 Riff 4
|---------------------|-------------------|
|---------------------|-------------------|
|---------------------|---4---2--2--2-2-2-|
|-----2-0-------------|-5---5-2--2--2-2-2-|
|---------2-4-0-0-----|-5-----0--0--0-0-0-|
|-0---------------3-2-|-3-----------------|

Electric
Bridge
|-----------------|
|-----------------|
|-4--4--4--4--4-4-|
|-4--4--4--4--4-4-|
|-2--2--2--2--2-2-|
|-----------------|

Riff 5
|-----------------------------------------------------------------|
|-----------------------------------------------------------------|
|-------9-9-9-7-7-7-7-7-7-7-7-7-7-3-3-3-5-5-5-4-4-4-4-4-4-5-5-5-5-|
|-2-2-2-9-9-9-7-7-7-7-7-7-7-7-7-7-0-0-0-5-5-5-4-4-4-4-4-4-5-5-5-5-|
|-2-2-2-7-7-7-5-5-5-5-5-5-5-5-5-5-1-1-1-3-3-3-2-2-2-2-2-2-3-3-3-3-|
|-0-0-0-----------------------------------------------------------|

Lead 1
|-10---10---10---10---10----9----9----9----9----9---12---12---|
|-13bf-13bf-13bf-13bf-13bf-12bf-12bf-12bf-12bf-12bf-15bf-15bf-|
|-------------------------------------------------------------|
|-------------------------------------------------------------|
|-------------------------------------------------------------|
|-------------------------------------------------------------|

Lead 2 Lead 3
|-12-14-10~--9h10p9-7~--12-15-12-|-12-14-10~--9h10p9-7~-----19-----|
|--------------------------------|-----------------------17----17~-|
|--------------------------------|---------------------------------|
|--------------------------------|---------------------------------|
|--------------------------------|---------------------------------|
|--------------------------------|---------------------------------|

Guitar 2

Acoustic
Riff 1
|-7-----7-----7---9-----9-----9---|
|---7-----7-----7---7-----7-----7-|
|-----7-----7---------7-----7-----|
|---------------------------------|
|---------------------------------|
|---------------------------------|

Riff 2 and 4
|-7-----9-----9---|-0-|
|---7-----7-----7-|-0-|
|-----7-----9-----|-0-|
|-----------------|-2-|
|-----------------|-2-|
|-----------------|-0-|

Rhythm on lead
|-----------------------------------------------------------------|
|-----------------------------------------------------------------|
|-4-4-4-4-4-4-4-4-4-4-4-4-4-4-4-4-------------------------2-2-2-2-|
|-4-4-4-4-4-4-4-4-4-4-4-4-4-4-4-4-2-2-2-2-2-2-2-2-5-5-5-5-2-2-2-2-|
|-2-2-2-2-0-0-0-0-----------------2-2-2-2-2-2-2-2-5-5-5-5-0-0-0-0-|
|-----------------3-3-3-3-2-2-2-2-0-0-0-0-0-0-0-0-3-3-3-3---------|

Check Out Death Warp, With More Transcriptions On It:
http://tiger.towson.edu/~dalvis1





Ваше мнение



Капча