K A T A K L Y S M
Sorcery
>From Sorcery 1995
Tune down 1 step

Tabbed by: [email protected]
special thanks to evil...TIM

Any ideas/suggestions/additions/
corrections would be greatly appreciated.

Verse 1:
|---------------------------------
|---------------------------------
|--33334446668886664443333--
|--33334446668886664443333--
|--11112224446664442221111--
|---------------------------------

Riff 2/Verse 2:
|------------------------------
|------------------------------
|------------------------------
|------------------------------
|--2-2222-5-4-3-2-2-2-3-4-5-2--
|--0-0000-3-2-1-0-0-0-1-2-3-0--
pm[. .... . . .]

Riff 3/Verse 3:
|------------------------------------------------
|------------------------------------------------
|-----43--------------------43-----------------
|--2--43------2-43-333--2--43------2-45-555--
|--2--21------2-43-333--2--21------2-45-555--
|--0-------7--0-21-111--0-------7--0-23-333--
pm[ ... ...]

|----------------------
|----------------------
|---------------45/4--
|--2-2-2-2-2-2--45/4--
|--2-2-2-2-2-2--23/2--
|--0-0-0-0-0-0---------
pm[. . . . . .]

Interlude: (scream part!!)
|-----------------|------------------------------
|-----------------|------------------------------
|--5--(let ring)--|--4--(while Guitar 1 does a --
|--5--------------|--4-- spew of single notes)---
|--3--------------|--2---------------------------
|-----------------|------------------------------

Verse 4
|---------------------------------
|---------------------------------
|--33334446668886664443333--
|--33334446668886664443333--
|--11112224446664442221111--
|---------------------------------

Break part:
|---------------------------------------
|---------------------------------------
|---------------------------------------
|--3-33333333333333--4-46-68-8/6/46--
|--3-33333333333333--4-46-68-8/6/46--
|--1-11111111111111--2-24-46-6/4/24--
pm[. ..............]

Second Interlude: Guitar 2
|---------------
|---------------
|----5-7-5-4-5--
|--7-5-7-5-4-5--
|--7-3-5-3-2-3--
|--5------------
. . . . . . (stacoto)

Second Interlude - Guitar 1 w/ grinding bass
|--------------------------
|--------------------------
|--------------------------
|--2------5------7------5--
|--2------5------7------5--
|--0------3------5------3--

Guitar 1 second interlude cont. Guitar 2 plays the same
|-----------------------
|--999---777------------
|-----999---999-1010-7--
|-----------------------
|-----------------------
|(stacoto)

Slow evil part
|-----------------
|-----------------
|-----------------
|--2---5---3---4--
|--2---5---3---4--
|--0---3---1---2--

BASS (grind that bitch!)
|-----------------
|-----------------
|-----------------
|--1-0-2-0-3-0-2--

Outro - after pause and bass solo *all chords/notes are tied
|---------------------------------------------
|---------------------------------------------
|---------------------------------------------
|---------------------------------------------
|--3---4---5---4--gradually speed up and end--
|--1-0-2-0-3-0-2-------on E5------------------
pm[. . . . . . .]




Ваше мнение



Капча