Author/Artist: KATAKLYSM
Title: SHRINE OF LIFE
Album: MYSTICAL GATE.........
Transcribed by: JAMIN WILLIAMSON
Email: [email protected]

TUNE DOWN 2 WHOLE STEPS.LISTEN TO THE ALBUM FOR THE CORRECT TIMING.

-|-------------|------------------|-----------------------------------|
-|-------------|------------------|-----------------------------------|
-|-------------|------------------|-----------------------------------|
-|-------------|-4---5-4-2--------|-----------------------------------|
-|-2---4---5---|-2---3-2-0---5-2--|-2---7---2---5---2---7---2---5-4---|
-|-0---2---3---|-------------3-0--|-0---5---0---3---0---5---0---3-2---|
RIFF1 RIFF2 RIFF3

-|--------------------|---------------------|-----------------|
-|--------------------|---------------------|-----------------|
-|--------------------|---------------------|-----------------|
-|--------------------|---------------------|-----------------|
-|-2----2----4----4-3-|-2-----------54-54-|-2---3---6---9---|
-|-0----0----2----2-1-|-00000000000032-32-|-0---5---4---7---|
RIFF4 PM......... RIFF5 RIFF6

-|---------------------|-----------------|----------------|
-|---------------------|-----------------|----------------|
-|---------------------|-----------------|----------------|
-|---------------------|-----------------|----------------|
-|---------------------|-2---2---2---9-7-|----------------|
-|-0----5----4----7----|-0---0---0---7-5-|-55-000-222-333-|
TREM.PICK RIFF7 RIFF8 RIFF9 TREM.PICK

-|--------------------------------|
-|--------------------------------|
-|--------------------------------|
-|--------------------------------|
-|-2-222-222-22-4-5-2222222222222-|
-|-0-000-000-00-2-3-0000000000000-|
PM ... ... .. ............ RIFF10

THE SONG GOES:
RIFF1X8
RIFF2X4
RIFF3X4
RIFF4X3
RIFF5X8
RIFF6X1
RIFF7X5
RIFF8X4
RIFF5X12
RIFF9X20
RIFF10X3
RIFF9X28




Ваше мнение



Капча