KATAKLYSM - Manifestation
from: The Prophecy
transcribed by say10schyld
[email protected]
Riff 1:
|------------------------------------|
|------------------------------------|
|000077778888555500008888101010107777|
|
|------------------------------------|
|------------77778888----8888----7777|
|000010101010--------7777----5555----|
Riff 2: 3x|
|2-3-2-5-2-4-2222-|3-2-4-5-2222-3-2-|
|2-3-2-5-2-4-2222-|3-2-4-5-2222-3-2-|
|0-1-0-3-0-2-0000-|1-0-2-3-0000-1-0-|
. . . . . . . . . . . .
Riff 3:
|------------------------------------|
|---------------------------------7-7|
|00000000-9-0-10-10-00000000-10-0----|
| . .
|------------------------------------|
|---------------------7-7---9-9-9-9--|
|00000000-9-0-10-10-0-----0----------|
| . . .
|------------------------------------|
|---------------------------------7-7|
|00000000-9-0-10-10-00000000-10-0----|
| . .
|------------------------------------|
|---------------------7-7------------|
|00000000-9-0-10-10-0-----0-9-9-9-9--|
. . .
Riff 4:
|2-----3-4-5-4-2-----5-4-3-4-|
|2-----3-4-5-4-2-----5-4-3-4-|
|0-00001-2-3-2-0-00003-2-1-2-|
| . . . . . . . .
|2-----3-4-5-4-5------4------|
|2-----3-4-5-4-5------4------|
|0-00001-2-3-2-30000002000000|
. . . .
Riff 5a:
|2-------45------43------|
|2-------45------43------|
|0-------23------21------|
Riff 5b:
|------------------------|2|
|------------------------|2|
|000000002333333321111111|0|
Riff 6:
|----------------------------------|
|------------------------------7777|
|000000009999999900000000991010----|
|
|------------------------------------|
|------------------------9977--------|
|000000009999999900000000----10101010|
Riff 7:
|2-2222-2-|
|2-2222-2-|
|0-0000-0-|
. .... .
Song structure:
riff 1 x 4
riff 2 x 4
riff 3 x 2
riff 4 x 2
riff 5a x 4
riff 5b x 4
riff 1 x 4
riff 6 x 4
riff 4 x 2
riff 4 x 2 (without pm)
riff 7
riff 6 x 4




Ваше мнение



Капча