Katalysm - Laments of Fear & Despair
From: The Prophecy (Stigmata of the Immaculate)
Transcribed by Brian Lydic ([email protected])
B Tuning
solo not included
Things I'm not quite sure of:
last ending of Riff 1,
the 9 in Riff 2
10
I'm pretty sure of the rest
slide down
./ pick & slide up
Riff 1 last time
-------------------------|-----------------------|-
-------------------------|-----------------------|-
-------------------------|-----------------------|-
-------------------------|-----------------------|-
----------3---------3./6-|---------3-----8-3-6-6-|-
--0-0-0-0-1-0-0-0-0-1./4-|-0-0-0-0-1-0-0-6-1-4-4-|-
Riff 2
-----------------------------|---------------------------------|-
-----------------------------|---------------------------------|-
-----------------------------|---------------------------------|-
-------------------------9---|----------------------10-9-------|-
-----10--10-----9--9-----10--|------10--10-----9--9------12-10-|-
-0-0--------0-0------0-0-----|--0-0--------0-0-----------------|-
Riff 3
---------------------------------------------------|-
---------------------------------------------------|-
---------------------------------------------------|-
---------------------------------9------9----------|-
-2---------------2-----------------9-10---10-9-----|-
-0-0-0-0-0-0-0-0-0-0-0-0-0-0-0-0---------------10--|-
-------------------------------------------------------|-
-------------------------------------------------------|-
-------------------------------------------------------|-
-------------------------------------------------------|-
-10---------------10---------------10------9------9-7--|-
-8--8-8-8-8-8-8-8-8--8-8-8-8-8-8-8----8-10---7-10------|-
Riff 4
-------------------|---------------------|-
-------------------|---------------------|-
-------------------|---------------------|-
-----10-----------|-----10-------------|-
--2--8------3./8--|--2--8------3./8-7--|-
--0------0-0-1./6--|--0------0-0-1./6-5--|-
Riff 4b
--------------------------------|-
--------------------------------|-
--------------------------------|-
--------------------------------|-
--2-2-2-2---2-2-2---2-2-2---2-2-|-
--0-0-0-0---0-0-0---0-0-0---0-0-|-
Riff 5
--------------------------------|-
--------------------------------|-
--------------------------------|-
--------------------------------|-
--2-2-2-2---2-2-2---2-2-2---2-5-|-
--0-0-0-0---0-0-0---0-0-0---0-3-|-
Riff 6
---------------------------------------------|-
---------------------------------------------|-
---------------------------------------------|-
---------------------------------------------|-
----10-9-10-12-10-9-10---10-9-10-12-14-12-10-|-
--0--------------------0---------------------|-
trem pick
Riff 7 (under solo)
-----------------|-
-----------------|-
-----------------|-
-----------------|-
-2---5---8---7-3-|-
-0---3---6---5-1-|- pick double-fast last two times




Ваше мнение



Капча