Heres a Kataklysm tab ive got.Its from the album The Prophecy.Its the first track, entitled 1999:6661:2000.Its a pretty simple song, but it rules.
|--------------------------------------------|
|--------------------------------------------|
|--------------------------------------------|Main Riff
|--------------------------------------------|
|----------p----------p-----------p----------|
|0-000000-1-0-0000-3-2-0--0000-2-1-0-0000-1--|
|----------------------------------|
|----------------------------------|
|----------------------------------|
|--------p-------------------------|Chorus
|2------3-2----5-4------4-3-------3|
|0--0-0-1-0--0-3-2--0-0-2-1--0-0--1|
Riff 3
|-------------------------------------------------------------------|
|-------------------------------------------------------------------|
|-------------------------------------------------------------------|
|--------777777---555555---9-9-9-9-9-9---------777777--555555-------|
|--------999999---777777--101010101010---------999999--777777-777777|
|000000---------------------------------000000----------------888888|
Riff 4
|----------------------------------------------|
|----------------------------------------------|
|----------------------------------------------|
|----------------------------------------------|Guitar 1
|----9-7-9-----10-9-10-----12-10-12-14-12-10-12|
|00---0-0---00---0-0----00---0--0--0--0--0--0--|
|----------------------------------------------|
|----------------------------------------------|
|----------------------------------------------|guitar 1 cont'd
|----------------------------------------------|
|----9-7-9-----10-9-10-----12-10-12-9-10-9-7~~-|
|00---0-0---00---0-0----00---0--0--0------0----|
|------------------------------------------------|
|------------------------------------------------|
|------------------------------------------------|
|------------------------------------------------|
|---14-12-14-----15-14-15----17-15-17-19-17-15-17|Guitar 2
|00---0--0----00---0--0---00---0--0--0--0--0--0--|
|------------------------------------------------|
|------------------------------------------------|
|------------------------------------------------|
|------------------------------------------------|guitar 2 cont'd
|---14-12-14-----15-14-15----17-15-17-14-15-14-12|
|00---0--0----00---0--0---00---0--0--0--------0--|
Thats it.




Ваше мнение



Капча