Artist: Kashmir
Song: The story of Jamie fame flame
Album: Travelogue
Tapped By: Mads
E-mail : [email protected]
Chorus/Intro:
G|-------------------------------------------------------------------
D|-----------------0--2----------------------------------------------
A|--------------2----------------------------------------------------
E| ---0--2--3--------------------------------------------------------
Verse:
G|--------------------------------------------------------------------
D|----------------2---------------------------------------------------
A|------0-0-----------------------------------------------------------
E|--0-0-----3-3-------------------------------------------------------
Heavy part:
G|--------------------------------------------------------------------
D|--------------------------------------------------------------------
A|-----------------------2-3-4-5---4-5-6-7----------------------------
E|--33333333333333----------5-----------333333------------------------
Solo part:
G|--------------------------------------------------------------------
D|--------------------------------------------------------------------
A|--------------------------------------------------------------------
E|--0—2—3—5--7—8---5—7------------------------------------------------

Playmap:
Intro/Chorus X 2
Verse X 4
Chorus X 4
Verse X 4
Chorus X 4
Verse X 4
Heavy part X 1
Solo part X 6
Chorus X 2
Verse X 4
Chorus X 4




Ваше мнение



Капча