Artist: Kashmir
Album: Zitilites
Song: Surfing The Warm Industry

Effects
This song is played on a Fender Telecaster, that's really all I know. And of course with some distortion.

Tabbed by Aske Saxe, Denmark
[email protected]

Tuning: standard
Chords used
C x32010
A5 x022xx/577xxx
C5 x355xx
D5 x577xx
E5 022xxx
H5 x244xx
Am x02210
G/h x200xx

Intro
E------------------ -r- --------------------- -r- --------------------------|
H------------------ -e- --------------------- -e- --------------------------|
G----7--7--7--7--7- -p- ---7---7---7---7---7- -p- --9--9--9--10-10-9--9--7--|
D------------------ -e- --------------------- -e- --------------------------|
A-5/8--8--8--8--8-- -a- -10--10--10--10--10-- -a- -8--8--8--8--8--8--8--8---|
E--------------------t- --------------------- -t- --------------------------|

E-------------------------------|
H-------------------------------|
G--4--4--4--4--4--4--4--4--4--4-|
D-------------------------------|
A-5--5--5--5--5--5--5--5--5--5--|
E-------------------------------|

Riff 1 (from verse 2)
Bb G Bb G
E----------------|----------------|----------------|----------------|
H----------------|----------------|----------------|----------------|
G--7--7--7--7--7-|--4--4--4--4--4-|--7--7--7--7--7-|--4--4--4--4--4-|
D----------------|----------------|----------------|----------------|
A-8--8--8--8--8--|-5--5--5--5--5--|-8--8--8--8--8--|-5--5--5--5--5--|
E----------------|----------------|----------------|----------------|

Verse 1, no guitar
I wanna run from the apathy
From the questioning tongues
And the eyes that just won't come off
And get a job in an industry
Where a smile's not required
And the complaints are always the same

Verse 2, riff 1
Cause baby you must me so fed up
With a boy that keeps telling you
How much good he's gonna do
When all that is happing 'round here
Is happening in here
And nothing gets out there
Except for the truth

Chorus
E5 H5
It's up to you
C5 A5 G/h
Cause I'm absolutely numb
C E5
It's up to you
Am C D5
Cause I'm absolutely numb

Bridge
GO! (distortion guitar)
Bb G Bb G
E-------------------|-------------------|-----------------|-----------------|
H-------------------|-------------------|-----------------|-----------------|
G-7-7-7-7-9-9-9-7-7-|-4-4-4-4-5-5-5-4-4-|-7-7-7-7-9-9-7-7-|-4-4-4-4-5-5-4-4-|
D-x-x-x-x-x-x-x-x-x-|-x-x-x-x-x-x-x-x-x-|-x-x-x-x-x-x-x-x-|-x-x-x-x-x-x-x-x-|
A-8-8-8-8-8-8-8-8-8-|-5-5-5-5-5-5-5-5-5-|-8-8-8-8-8-8-8-8-|-5-5-5-5-5-5-5-5-|
E-------------------|-------------------|-----------------|-----------------|

Verse 3, riff 1
I've been adrift on the silver surf
And I've paddled ahead of the fear
That I'd fall behind
I took drinks from the glitter smurfs
And their company dads who never
Stood by in the crying

Verse 4, riff 1
Cause no one does and nobody ever will
There is only space for one
And surely he gets killed
When the engine seizes up
You might call it existential crisis
I simply call the bravery
Of emptiness

Chorus
E5 H5
It's up to you
C5 A5 G/h
Cause I'm absolutely numb
C E5
It's up to you
Am C D5
Cause I'm absolutely numb

Outro
GO! (acoustic guitar)
Bb G Bb G
E-------------------|-------------------|-----------------|-----------------|
H-------------------|-------------------|-----------------|-----------------|
G-7-7-7-7-7-7-7-7-7-|-4-4-4-4-4-4-4-4-4-|-7-7-7-7-7-7-7-7-|-4-4-4-4-4-4-4-4-|
D-x-x-x-x-x-x-x-x-x-|-x-x-x-x-x-x-x-x-x-|-x-x-x-x-x-x-x-x-|-x-x-x-x-x-x-x-x-|
A-8-8-8-8-8-8-8-8-8-|-5-5-5-5-5-5-5-5-5-|-8-8-8-8-8-8-8-8-|-5-5-5-5-5-5-5-5-|
E-------------------|-------------------|-----------------|-----------------|




Ваше мнение



Капча