Kashmir
Rocket brothers
Zitilites
capo on 2nd
INTRO/OUTRO
e----2-2-2-2-2-2-2-2-2-2-2-2-2-2-2-2-2-2--2--2--2--2 -r- --2--2--2--2 -r-
h---2-2-3-3-5-5-7-7-9-9-3-3-5-5-7-7-9-9-10-10-12-12- -e- 14-14-14-14- -e-
g--------------------------------------------------- -p- ------------ -p-
d--------------------------------------------------- -e- ------------ -e-
a--------------------------------------------------- -a- ------------ -a-
e--------------------------------------------------- -t- ------------ -t-
(I miss you so much...)
VERS 1
(Played with twice as many hits as written)
Cmaj7 G/B E Em Am Cmaj7
e-----2--2--2--2--2--2--2--2--2--2--2--2--2--2--2--2--2--2--2--2--2--2--2--2
h---14-14-14-14-14-14-14-14-14-14-14-14-14-14-14-14-15-15-15-15-14-14-14-14-
g---------------------------------------------------------------------------
d---------------------------------------------------------------------------
a---------------------------------------------------------------------------
e---------------------------------------------------------------------------
...boy...
G D D7 Bm G C Cmaj7 (Am)
e-----2--2--2--2--2--2--2--2--2--2--2--2--2--2--2--2--2--2--2--2--2--2--2--2
h---14-14-12-12-15-15-15-15-14-14-14-14-14-14-14-14-15-15-14-14-12-12-12-12-
g---------------------------------------------------------------------------
d---------------------------------------------------------------------------
a---------------------------------------------------------------------------
e---------------------------------------------------------------------------
...ends... I owe you so much time...

Cmaj7 G/b
I miss you so much boy
E Em
will we be comeing on again
Am Cmaj7
don't ever loose your ropes
G D D7
this man is hanging by the eee-ends
Bm G
I owe you so much time
C Cmaj7 Am
yes you might say it isn't like that at all
F
but now it's coming back to you
D7
these open moments that I blew
Bm Csus2
rocket brothers crack and burst
G Am
if they can't meet upon the verge
Bm Csus2
of breaking into seperate parts
G D
that was not written in our caaaa-aards
Cmaj7 G
now you got someone to protect
Cmaj7 G Cmaj7 (break)
someone you cannot reject
Cmaj7 G/b
I miss you so much boy
E Em
but I was buried in the mines
Am Cmaj7
I found it hard to stop
G D D7
you found me very hard to fiiii-iind
Bm G
but now that you've made way
C Cmaj7 Am
I'd better tie together these ropes again
F
and throw the times right back to you
D7
and all the chances that I blew
Bm Csus2
rocket brothers crack and burst
G Am
if they can't meet upon the verge
Bm Csus2
of breaking into seperate parts
G D
that was not written in our caaaa-aards
D7 Bm Csus2
those rocket brothers on the verge
G Am
we should be careful' cause it could burst
Bm Csus2
and we're not lonely anymore
G D
lonely as we were befooo-oore
Cmaj7 G
and now there is someone to protect
Cmaj7 G
someone you cannot reject
Cmaj7 G Cmaj7
something I will not neglect, no
Cmaj7 G/b E Em Am D D7 Bm F Csus2
x/3 x/3 0 0 0 2 2 2 1 3
0 0 0 0 1 3 1 3 1 3
0 0 1 0 2 2 2 4 2 5
2 0 2 2 2 0 0 4 3 5
3 2 2 2 0 x x 2 3 3
x x 0 0 x x x x 1 x




Ваше мнение



Капча