Artist: Kashmir
Song: prawns Blues
Album: Cruzential
Bass by. Mads Tunebjerg
Tabbed by: Ertner.

A good old kashmir song from the Cruzential album

Intro
G|------------------
D|------------------
A|------------------
E|-3-0-3-5-6~-0h3-0-
Riff 1
G|----------------
D|---------------- x4
A|----------------
E|-3-0-3-5-6~-3-0-
Riff 1Ѕ
G|----------------
D|----------------
A|----------------
E|-3-0-3-5-6~-----
Mid 1
G|---------------
D|---------------
A|-0-0-0-2-2-2-2-
E|---------------
Riff 1
G|----------------
D|---------------- x3
A|----------------
E|-3-0-3-5-6~-3-0-
Riff 1Ѕ
G|----------------
D|----------------
A|----------------
E|-3-0-3-5-6~-----
Mid 2
G|-----------------------------------
D|-----------------------------------
A|-0-0-0-0-2-2-2-2-3-3-3-3-2-2-(0----
E|--------------------------------3)-
Mid 3
G|-------------------------------
D|------------------------------- x3
A|---------4--4-4-3--3-3---------
E|-0---0-0---------------3-3h5p3-
Mid 4
G|------------------------
D|------------------------
A|--------4--4-4-3--3-3-2-
E|-0--0-0-----------------
Riff 2
G|------------------
D|------------------
A|------------------
E|-3-0-3-5-6-7~-3-0-
Riff 1
G|----------------
D|----------------
A|----------------
E|-3-0-3-5-6~-3-0-
Riff 1Ѕ
G|----------------
D|----------------
A|----------------
E|-3-0-3-5-6~-----
Mid 2
G|-----------------------------------
D|-----------------------------------
A|-0-0-0-0-2-2-2-2-3-3-3-3-2-2-(0----
E|--------------------------------3)-
Riff 2
G|------------------
D|------------------
A|------------------
E|-3-0-3-5-6-7~-3-0-
Riff 3
G|--------------------
D|-------------------- x3
A|--------------------
E|-3-0--5-6~-3-0--0-0-
Riff 1Ѕ
G|----------------
D|----------------
A|----------------
E|-3-0-3-5-6~-----
Mid 2
G|-----------------------------------
D|-----------------------------------
A|-0-0-0-0-2-2-2-2-3-3-3-3-2-2-(0----
E|--------------------------------3)-
Mid 3
G|-------------------------------
D|------------------------------- x2
A|---------4--4-4-3--3-3---------
E|-0---0-0---------------3-3h5p3-

Mid 4
G|------------------------
D|------------------------
A|--------4--4-4-3--3-3-2-
E|-0--0-0-----------------
Riff 2
G|------------------
D|------------------
A|------------------
E|-3-0-3-5-6-7~-3-0-
Riff 3
G|--------------------
D|-------------------- x2
A|--------------------
E|-3-0--5-6~-3-0--0-0-
Fill
G|-------
D|-------
A|-5p0---
E|-----0-
Riff 3
G|--------------------
D|-------------------- x2
A|--------------------
E|-3-0--5-6~-3-0--0-0-
Fill
G|-------
D|-------
A|-5p0---
E|-----0-
Riff 3
G|--------------------
D|-------------------- x2
A|--------------------
E|-3-0--5-6~-3-0--0-0-
Fill
G|-------
D|-------
A|-5p0---
E|-----0-
Riff 3
G|--------------------
D|-------------------- x3
A|--------------------
E|-3-0--5-6~-3-0--0-0-
Riff 2
G|------------------
D|------------------ x3
A|------------------
E|-3-0-3-5-6-7~-3-0-
Mid 5
G|--------------------------
D|--------------------------
A|--------------------------
E|-3-0-3-5-6-7-8-9-10-11-12-
Mid 3
G|-------------------------------
D|------------------------------- x3
A|---------4--4-4-3--3-3---------
E|-0---0-0---------------3-3h5p3-
Outro
G|--------------------------------
D|--------------------------------
A|-3-3-3-------------2------------
E|-------3-3-3-1-1-1----------3-0-

It is a long song but so what.




Ваше мнение



Капча