Intro:
Keyboard

If you don't have a Keyboard,
You can just play a round of the verse, as a Intro
Verse:
1 2
E-------------------- E---------------------
B------1-------1----- B------0-------0------
G----2---2---2---2--- G----2---2---2---2----
D--2-------2--------- D--1-------1----------
A-------------------- A---------------------
E-------------------- E---------------------
3 4
E-------------------- E---------------------
B------0-------0----- B---------------------
G----1---1---1---1--- G------2------2-------
D--0-------0--------- D----2--2---2--2------
A-------------------- A--3------3-----------
E-------------------- E---------------------
5 6
E-------------------- E---------------------
B-------------------- B---------------------
G------2-------2----- G------4-------4------
D----3---3---2---3--- D----3---3---3---3----
A--3-------3--------- A--5-------5----------
E-------------------- E---------------------

7 8
E-------------------- E---------------------
B-------------------- B------0-------3------
G------4-------4----- G----1---1---1---1----
D----5---5---5---5--- D--2-------2----------
A--5-------5--------- A---------------------
E-------------------- E---------------------

After some few rounds the rhythm starts go difference,
But it still the same chords so
I think you will be able to figure it out


Chorus:

A Em Dsus A E
Every home should have a mom in love, and a daddy in space.
A Em Dsus F#m E
Chinese porcelain cats to guard he love, in the window space
F F G A
Show he some respect sheЎ¦s all worn out.
Solo:
E-------------9--------9---------9-12-10-9-----
B--10-9-10-12---9-10-12--9-10-12---------- 12--
G----------------------------------------------
D----------------------------------------------
A----------------------------------------------
E----------------------------------------------
E-------------9--------9---------9-12-10-9-----------------
B--10-9-10-12---9-10-12--9-10-12---------- 12-10-9----9-9--
G--------------------------------------------------11------
D----------------------------------------------------------
A----------------------------------------------------------
E----------------------------------------------------------
And then it end with a F#m
The song goes like this:
Intro
Verse
Chorus
Verse
Chorus
Chorus
Solo
End
ItЎ¦s my first tab so its not 100% correct but almost I think.
If you have some questions or some gut or bad to say about
The song, send me a mail [email protected]
Enjoy!!!




Ваше мнение



Капча