#-----------------------------------------------------------------------------#
#-- File created with Instab - http://www.pconline.com/~smcarey/instab.html --#
#-----------------------------------------------------------------------------#

Author/Artist: Kashmir
Title: Miss You
Album: The Good Life
Transcribed by: Svinet
Email: [email protected]

Intro
------------------------------------------------------------------------------
------------------------------------------------------------------------------
-----------22-2222-----------33-3333--55-5555--33-3333-22-2222--55-5555-------
--00-0000-----------33-3333---------------------------------------------------

Verse
------------------------------------------------------------------------------
------------------------------------------------------------------------------
-----------3---30------------2----2-------------------------------------------
-0---03-------------0---03----------------------------------------------------

Fill 1
------------------------------------------------------------------------------
------------------------------------------------------------------------------
-3--33----------3--33-------------5-------------------------------------------
--------0--00-----------3--33-------------------------------------------------

Chorus
------------------------------------------------------------------------------
------------------------------------------------------------------------------
-5-55--3-2-----5-55--3-2-0--00-----33----33------------------------------------
-----------(3)-------------------3-----3---------------------------------------

Fill 2
------------------------------------------------------------------------------
------------------------------------------------------------------------------
-5-5-5-5-5-5-5-5-5------------------------------------------------------------
------------------------------------------------------------------------------

Fill 3
------------------------------------------------------------------------------
------------------------------------------------------------------------------
-3------3-------------3------33-----33---55555555-----------------------------
----3-------0-1-2-3-------3------3--------------------------------------------


Intro 2x
Verse 2x
Fill 1
Verse
Chorus
Verse 3x
Chorus
Fill 2
Intro 2x
Fill 3
Chorus
Fill 2
Quiet part
Intro to the end.

This is more or less it. If you have any corrections the mail me.




Ваше мнение



Капча