This is only the Verse in the song. Sorry it's all i've tabbed so far. Hope you enjoy!!!

E||--------------------------|--------------------------|
B||--------7--------7--------|--------7-----------5-----|
G||-----6--------6-----6-----|-----6-----6-----6-----6--|
D||--9--------7-----------7--|--6-----------7-----------|
A||--------------------------|--------------------------|
E||--------------------------|--------------------------|


--------------------------|---------------------------||
--------7--------9--------|--------7--------10--------||
-----7-----7--------7-----|-----7-----7---------7-----||
--7-----------7--------7--|--9-----------9---------9--||
--------------------------|---------------------------||
--------------------------|---------------------------||

If you got any other tabs to Make It Grand please send them to me. [email protected]




Ваше мнение



Капча