Artist: Kashmir
Song: Leathercrane
Album: Travelogue
By: Ertner, with a little help from a freind of mine

Intro a
G----
D----
A-2--
E---1

Intro b
G-----------------------------------
D-9-9-7-------------9-9-7-----------
A-------9-8-9-------------9-8---5-7-
E--------------5-7------------------

Verse
G----------------------------------------
D--9-9-7---------------9-9-7-------------
A----------9-8-9--------------9-8-9--5-7-
E-7--------------5-7-7-------------------

Bridge a
G--------
D--------
A--------
E-7-5-3-0

Bridge b
G-----------------
D-----------------
A-----------------
E-2-2-1-0--2-2-1-0

Chorus
G---------------------
D--9------------------
A----9-8-7-5-7-5------
E-7--------------3---0

During solo
G------------
D---0--------
A-2----------
E-----1-0-1-2

Order.
Intro a *4
Intro a *2
Verse *2
Bridge a *1
Bridge b *1
Verse *1
Bridge a *1
Chorus *2
Intro a *4
During solo *12
Bridge b *2
Chorus *2
Intro *4
During solo *20
Bridge a *1
Bridge b *1
Chorus *1
Intro *




Ваше мнение



Капча