I STILL PRAY - Kasey Chambers & Paul Kelly
Transcribed by Daniel Schaumann
INTRO: Bm x4
CHORUS:
Bm
I still cry for baby Jesus
Bm A
And I still pray when I'm alone
G D
And when I'm lost, he'll come to find me
A G Bm
Because he died to save my soul

Bm
When I can't walk, he's there to carry
Bm A
When I speak, he hears my words
G D
When I wake and I have nothing
A G Bm
He sends me gold, francinsense and myrrh
CHORUS
SLIDE SOLO:
3 4
E|----------------|
B|----12--12--10--|
G|----------------|
D|----------------|
A|----------------|
E|----------------|
Bm
1 2 3 4 1 2 3 4
E|----------------------------------------------------------------|
B|-------------------9-10-9-------------------------------10--12--|
G|11--------------------------7----------------------11-----------|
D|--------------------------------9---------7s9-9-----------------|
A|----------------------------------------------------------------|
E|----------------------------------------------------------------|
Bm A
1 2 3 4 1 2 3 4
E|----------------------------------------------------------------|
B|------------------------10--------------------------------------|
G|11------9----s--11--11------11--9-------6s7--------6-7-7-9-11-12|
D|--------10---s--12--------------------------7-------------------|
A|----------------------------------------------7-----------------|
E|----------------------------------------------------------------|
G D
1 2 3 4 1 2 3 4
E|----------------------------------------------------------------|
B|--------10-12-12-------10s12s10-10-------------------11--9------|
G|---12----------------------------11s12s11-----------------------|
D|----------------------------------------12----------------------|
A|-------------------------------------------12-9-----------------|
E|----------------------------------------------------------------|
A G Bm
1 2 3 4 1 2 3 4
E|----------------------------------------------------------------|
B|----------------------------------------------------------------|
G|12--9---------------7-9-7---------------------------------------|
D|----------------9-11-----11-9-7-9-----------7-s-9---------------|
A|----------------------------------------------------------------|
E|----------------------------------------------------------------|
Bm
When I cry my tears of sorrow
Bm A
When my heart will only ache
G D
And if I'm troubled when I'm sleeping
A G Bm
He will hold me until I wake
CHORUS
A G Bm
Because he died to save my soul
A G Bm
Because he died... to save my soul
ADLIB SLIDE ON Bm TILL END

11/03/2001




Ваше мнение



Капча