Kansas – The Coming Dawn (THANATOPSIS)
Tabed by Tommy Szombathy
e-mail: [email protected]
* C/G C C/G C Am/G Am Am/G Am Fmaj7/G Fmaj7 G G 6
E-----3----0----3----0-------3----0----3----0---------3------0------3------0--------------
H-----0----0----0----0-------1----1----1----1---------1------1------3------3--------------
G----(0)--(0)--(0)--(0)-----(2)--(2)--(2)--(2)-------(2)----(2)----(4)----(4)-------------
D----(2)--(2)--(2)--(2)-----(2)--(2)--(2)--(2)-------(3)----(3)----(5)----(5)-------------
A----(3)--(3)--(3)--(3)-----(0)--(0)--(0)--(0)--------------------------------------------
E-----J---------J------------J---------J--------------J------------J----------------------
For the intro and 1st verse don’t play (x)
Acoustic guitar: 2nd verse
C Am
As the dew turns into frost
Fmaj7 G C
There is something that I hope will not be lost
C Am
The leaves will change, they’ll start to fall
Fmaj7 G C
I still wonder if it mattered much at all.

F Dm
When my world starts to fade
C G
I can only hope that every choice I made
F Dm G C*
Will endure, and carry on … into The Comming Dawn.

E------8---7---5---3---3----------------- (violin)

C Am
The breezes blow, soft clouds drift by
Fmaj7 G C
Like some artists’ canvas captured in my eye
C Am
I am sure, I’m holding fast
Fmaj7 G C
I am dying for a lifetime that will last.

F Dm
But when my world starts to fade
C G
I’m still hoping this foundation that I laid
F Dm G C*
Will endure, and carry on … into The Comming Dawn.

Solo: (as sure as dogs can fly)
E---5---7-8-10---8-7-5---7-8-7-----8---10-12-13---12-10-12---7-10---10-12-13---12---10---7---5---5-7-8--7-5-3-

15--14--12-10-12--10-12-14--14--12-14-15--15-14-12-10---10---10----8-7-8---8---7-5-7----(3-5)--7----5-3-5-----
5--5--4-2-4--- (violin)
C Am
We’re so close, yet never touch
Fmaj7 G C
Can there be a love that changes me this much
C Am
I can’t see, eyes open wide
Fmaj7 G C
Yet I’ll never doubt you’re standing by my side.

F Dm
When my world starts to fade
C G
I can only hope that every choice I made
F Dm G Am
Will endure, and carry on … into The Comming Dawn.


Ваше мнение



Капча