No one has the tabs for this song!!!!??????
/=slide pm=palm mute or in this case stop the not by palm muting.
00:00 PLAY LAST 5th TIME ONLY
E|---------------------------------|----------------------
B|---------------------------------|----------------------
G|---------------------------------|----------------------
D|---------------------------------|----------------------x5
A|---7-X-X-7-X-X-7-X-X-X-7-9-9/10/5|---11-----------------
E|---5-X-X-5-X-X-5-X-X-X-5-7-7/8/3 |---9------------------
00:20
E|---------------------------------------------
B|---------------------------------------------
G|---------------------------------------------
D|---------------------------------------------x2
A|-7-----5--------------5--5--555--5--555------
E|-5-----3--------------3--3--333--3--333------
pm pm pm pm
00:46
E|--------------------------------------------
B|--------------------------------------------
G|--------------------------------------------
D|--------------------------------------------
A|--7------7--9-10/7--7/5--5------------------
E|--5------5--7-8/5 --5/3--3------------------
this part is kind of fuzzy. I'm not sure if its correct
but thats all I have. I have som gesses at how to play
the rest but I dont want to post any wrong tabs
Mirt




Ваше мнение



Капча